Joy Division

Interzone

Joy Division

120 exibições
Tuning:EADGBe

Intro: 
e|---------------------|         |----------------------------------------|
B|---------------------|Then:    |----------------------------------------|
G|-5-7-5--2-2222222222-|         |-5-7\9-7-5h7p5-2-2-2-2-5\7-5-22-2-2-2-2-|
D|-5\7-5--2-2222222222-|X3       |----------------------------------------|
A|-3-5-3--0-0000000000-|         |----------------------------------------|
E|---------------------|         |----------------------------------------|
            ^---pm---^    This part is also in between the 2nd and 3rd verses
e|-------------------|
B|-------------------|
G|-7b7b-5-22-2-2-2-2-|
D|-------------------|
A|-------------------|
E|-------------------|

Verse:
e|---------------------|
B|---------------------|
G|-5-7-5--2-2222222222-|
D|-5\7-5--2-2222222222-|
A|-3-5-3--0-0000000000-|
E|---------------------|
            ^---pm---^
Bridge:
e|-----|
B|-----|
G|-(2)-|
D|--2--|  Palm mute all through bridge, and then back to verse
A|--0--|
E|-----|

Other Part:
e|---------------------|
B|---------------------|
G|-2\7-5-2-5-2---2---2-|
D|-------------2---2---|X2  
A|---------------------|
E|---------------------|
This part is in the song twice, once in between the 1st and 2nd verses and then it's
the ending. You're gonna have to listen to the song to figure out the timing, but it
just makes sense that you would already know the song if you're playing it.  Great
song, fun to play, enjoy the music


Enviada por Sem inscrição
Nº de acordes: 0