Joy Division

Dead Souls

Joy Division

700 exibições
     G                 F
  E|-----------------|-----------------|
  B|-----------------|-----------------|
  G|-----------------|-----------------|
  D|-----------------|-----------------|      Normal Verse
  A|-------------1-3-|-----------------|        Bass Riff
  E|-3-3---3-3-3-----|---1-1-1-1-1-1-1-|


     G                 F
  E|-----------------|-----------------|
  B|-----------------|-----------------|
  G|-----------------|-----------------|
  D|-----------------|-----------------|     Bass Riff just
  A|-------------1-3-|---------------3-|      before chorus
  E|-3-3---3-3-3-----|---1-1-1-1-1-1---|


     F       D#        A#      C
  E|-----------------|-----------------|
  B|-----------------|-----------------|
  G|-----------------|-----------------|
  D|-3-3---1-1-1-----|---------------3-|     Chorus Bass Riff
  A|---------------1-|---3-3-1-3-------|
  E|-----------------|-----------------|


     F       D#        A#      C
  E|-----------------|-----------------|
  B|-6-6---4-4-4-----|---------------6-|
  G|-5-5---3-3-3---3-|---5-5-3-5-----5-|
  D|-3-3---1-1-1---3-|---5-5-3-5-----3-|    Chorus Guitar Riff
  A|---------------1-|---3-3-1-3-------|
  E|-----------------|-----------------|


Enviada por Sem inscrição
Nº de acordes: 5