Sem imagem

Crazy Times

Jard Of Clay

108 exibições
  Dm7 Bm C#sus A   E   F#  D F#m Bsus2 B   D7  C# 
|--2---2---4---0---0---2---2---2---2---2---2---4--| 
|--2---3---7---2---0---2---3---2---2---4---1---6--| 
|--2---4---6---2---1---3---2---2---4---4---2---6--| 
|--0---4---6---2---2---4---0---4---4---4---0---6--| 
|------2---4---0---2---4-------4---2---2-------4--| 
|------------------0---2-------2------------------| 
 
 
4/4  
 
- INTRO - 
 
Dm7  Bm  Dm7  Bm  Dm7  Bm  C#sus 
 
 
-VERSE 1 -  
 
Dm7       Bm     Dm7            Bm             Dm7 
        Youre cold that way, and thats why you say 
 
            Bm            C#sus 
        The things that you say 
 
Dm7       Bm      Dm7          Bm             Dm7 
        You cant attract, the things that you lack 
 
               Bm       A      E  E 
        Youre trying in vain 
 
 
- CHORUS - 
 
F#        D           A         E      F#m 
        It seems, its always the crazy times 
 
            D            A          Bsus2  F# 
        You find, youÕll wake up and realize 
 
          D       A        E           B 
        It takes, more than your saline eyes 
 
                      C#sus 
        To make things right 
 
 
-VERSE 2 -  
 
Dm7          Bm      Dm7         Bm            Dm7 
        You spiral down, youve broken your crown 
 
                  Bm        C#sus 
        You donÕt feel like a queen 
 
Dm7           Bm       Dm7                 Bm           Dm7 
        Youve seen the proof, but youre still crying wolf 
 
              Bm        A     E   E 
        Youll never believe 
 
 
- CHORUS - 
 
 
-  BRIDGE  - 
 
    D7 
You try to climb a broken ladder 
 
D7 
Grip the missing rungs and fall 
 
F#m           F#m 
Down,  Down,  Down,  Down 
 
D7 
Seems sometime ago you said 
 
D7 
This wouldnt last, and now you sit here 
 
C#           C# 
Crying 
 
 
- SOLO - chords      F#    D    A    E    F#m    D    A    Bm    Bm 
 
 solo by Brant Erickson 
 
|--17bend-six-times--14-------------------------------10--14-| 
|--------------------------------------------------14--------| 
|-----------------------14--16------------------16-----------| 
|------------------------------14--------16--14--------------| 
|---------------------------------16--14---------------------| 
|------------------------------------------------------------| 
 
 
- INTERLUDE -  SAME AS INTRO 
 
 
-VERSE 3 -  
 
Dm7       Bm       Dm7       Bm           Dm7 
        Beside your bed, you feel left for dead 
 
           Bm            A    E    E 
        And kneel in the dark 
 
 
- CHORUS - 


Enviada por Sem inscrição
Nº de acordes: 13