Ira!

Eu Quero Sempre Mais

Ira!

3.705 exibições
Tom: [C]
Intro: Base: [C]  [Am]  [G]

Violao 1:
e|-------------------------------------------- | (by dudo)
b|-1------------------------------------------ |
g|-0---0---0--------0---0-----------------0--- |
D|-2---0h2-0-2-2----0h2-0--2-2--2-0h2-0---0--- | ---> 1 vez, na segunda vez
A|-3-3-------3-3--3--------3-0--0-0---0---2--- |      faça o mesmo do violao 2.
E|--------------------------------------0-3--- |

Violao 2:
e|------------------------------------------------------------ | (by dudo)
b|--1-1--0-1-3-1-0--1-1--0-1-3-1-0----1--0-1-3-1-0------------ |
g|--0-0--0-0-0-0-0--0-0--0-0-0-0-0----2--2-2-2-2-2---0-0----0- |---> só entra na segunda
D|--2-2--2-2-2-2-2--2-2--2-2-2-2-2--2-2--2-2-2-2-2---0-0----0- |     vez, com o violao 2
A|--3-3-------------3-3-------------0-0------------2-2-2--2-2- |     fazendo esse mesmo
E|-------------------------------------------------3-3-3--3-3- |     riff


Verso 1: Tocar abafado (palm mute)

[C]                           [F]
a minha vida , eu preciso mudar
      [G]
todo dia
        [C]
pra escapar
                      [F]               [G] 
da rotina dos meus desejos por seus beijos
           [C] 
dos meus sonhos eu procuro acordar
     [F]          [G]
e perseguir meus sonhos
           [C]
más a realidade que vem depois
            [F]
nao é bem aquela
             [G] 
que eu planejei...

Refrao:

   [F] [F] slide [G]
e|--1--1-/-3--------- | 
b|--1--1-/-3--------- |
g|--2--2-/-4--------- |
D|--3--3-/-5--------- | 
A|--3--3-/-5--------- | 
E|--1--1-/-3--------- |


[F] [G]
eu quero  sempre mais
[F] [G]
eu quero  sempre mais
[F] [G]                      [C]
eu espero sempre mais de ti 

Repete Intro.
Verso 2: 

[C]
por isso hoje 

eu estou tao triste
           [F]           [G]         [C]
porque querer está tao longe de poder
            [F]             [G]   [C] 
e quem eu quero está tao longe
[F] [G]            [F] [G]     
   longe de mim
             [F] [G]
longe de mim
             [F] [G]
longe de mim
             [F] [G]
longe de mim

------------------------Solo------

Repete Verso 1 ( Pitty )
Repete Refrao
Repete Verso 2
Repete Intro.
Final: [C]


Enviada por Sem inscrição
Nº de acordes: 4