Sem imagem

Black And White

In Flames

104 exibições
. - Plam Mute

Preste atenção na afinação.

Intro
c#|-------------------------------------------------------------------|
G#|-------------------------------------------------------------------|
E |-------------------------------------------------------------------|
B |--------------------3---------------------3------------------------|
F#|0-0-0-0-0-0-0-0-0-0-1-0-0-0-0-0-0-0-0-0-0-1------------------------|
B |0-0-0-0-0-0-0-0-0-0---0-0-0-0-0-0-0-0-0-0--------------------------|

Verso
C#|-------------------------------------------------------------------|
G#|-------------------------------------------------------------------|
E |-------------------------------------------------------------------|
B |----------------------7-----------------------7--------------------|
F#|0-0-0-0-0-0-0-0-0-0-0-5-0-0-0-0-0-0-0-0-0-0-0-5--------------------|
B |0-0-0-0-0-0-0-0-0-0-0---0-0-0-0-0-0-0-0-0-0-0----------------------|

Pre-Chorus
C#|-------------------------------------------------------------------|
G#|-------------------------------------------------------------------|
E |-------------------------------------------------------------------|
B |-------------------------------------------------------------------|
F#|12-12-12-12-12-12-12-12-12-12-12-12-12-12-12-12-12-12--10-12-13-13-|
B |11-11-11-11-11-11-11-11-11-11-11-10-10-10-10-10-10-10--10-12-13-13-|

Chorus
C#|-------------------------------------------------------------------|
G#|-------------------------------------------------------------------|
E |-------------------------------------------------------------------|
B |-------------------------------------------------------------------|
F#|3-5-3-2-2-2-2-2-2-2-2-2-2------------------------------------------|
B |3-5-3-2-2-2-2-2-2-2-2-2-2------------------------------------------|

C#|-------------------------------------------------------------------|
G#|-------------------------------------------------------------------|
E |-------------------------------------------------------------------|
B |------------------------------11-11--------------------------------|
F#|3-5-7-2-3-5-7-9--3-5-7-2-3-5--9-9----------------------------------|
B |3-5-7-2-3-5-7-9--3-5-7-2-3-5--9-9----------------------------------|

Interlude
C#|-------------------------------------------------------------------|
G#|-------------------------------------------------------------------|
E |-------------------------------------------------------------------|
B |-------------------------------------------------------------------|
F#|0-0-0-0-0-0-0-0-0-0-0-0-0------------------------------------------|
B |0-0-0-0-0-0-0-0-0-0-0-0-0-3-2-0-5-3-2-3----------------------------|
     . . .   . . .   . . .
Solo
C#|-------------------------------------------------------------------|
G#|-----------------------16-14-16-17-16-14-11-19-18------------------|
E |--9-7-9---10-7---7-7-----------------------------------------------|
B |--------8----------------------------------------------------------|
F#|-------------------------------------------------------------------|
B |-------------------------------------------------------------------|


Final chorus
C#|-------------------------------------------------------------------|
G#|-------------------------------------------------------------------|
E |-------------------------------------------------------------------|
B |----------------------------9-9-11-11------------------------------|
F#|1-3-5-0-1-3-5-8-1-3-5-0-1-3-9-9-9--9-------------------------------|
B |1-3-5-0-1-3-5-8-1-3-5-0-1-3-9-9-9--9-------------------------------|

outro
C#|-------------------------------------------------------------------|
G#|-------------------------------------------------------------------|
E |-------------------------------------------------------------------|
B |--------------------3---------------------3------------------------|
F#|0-0-0-0-0-0-0-0-0-0-1-0-0-0-0-0-0-0-0-0-0-1------------------------|
B |0-0-0-0-0-0-0-0-0-0---0-0-0-0-0-0-0-0-0-0--------------------------|


Enviada por Sem inscrição
Nº de acordes: 0