Capotraste 2° casa

Intro: (Am F C C) 2x

Am               F               C
 I feel like I'm drowning in ice water
Am            F                 C
 My lips have turned a shade of blue
Am          F
 I'm frozen with this fear
C
 That you may disappear
Am           F             C
 Before I've given you the truth


Refrão:

Am          F                 C
 I bleed my heart out on this paper for you
Am          F                C
 So you can see what I can't say
Am              F
 I'm dying here (I'm dying here)
C
 'Cause I can't say what I want to
Am          F                  C
 I bleed my heart out just for you

 Am        F         C                 Am         F          C
E|--------- | --------- | ----------------- | ---------- | ---------------------- |
B|--------- | --------- | ---10---8--7----- | ---------- | --8--7---------------- |
G|--(b9)-7--| --(b9)-7- | -7----7-----(b9)- | ---(b9)-7- | ------(b9)-7----6h7p6- |
D|-7------- | -7------- | ----------------- | --7------- | ---------------------- |
A|--------- | --------- | ----------------- | ---------- | ---------------------- |
E|--------- | --------- | ----------------- | ---------- | ---------------------- |


Verso 2:

Am           F                  C
 I've always dreamed about this moment
Am            F                       C
 And now it's here and I've turned to stone
Am            F
 I stand here petrified
C
 As I look you in your eyes
Am          F        C
 My head is ready to explode

Am          F                 C
 I bleed my heart out on this paper for you
Am          F                C
 So you can see what I can't say
Am              F
 I'm dying here
C
 'Cause I can't say what I want to
Am          F                  C
 I bleed my heart out just for you


Ponte:

D
 And it's all here in
F                        Am         C
     Black and white and red
D
 For all the times
       F                Am        G
 Those words were never said


Refrão:

Am          F                 C
 I bleed my heart out on this paper for you
Am          F                C
 So you can see what I can't say
Am              F
 I'm dying here (I'm dying here)
C
 'Cause I can't say what I want to
Am          F                  C
 I bleed my heart out just for you
Am          F                  C
 I bleed my heart out just for you

Outro:

 Am        F         C                 Am         F          C
E|--------- | --------- | ----------------- | ---------- | ------------- |
B|--------- | --------- | ----10--8--7----- | ---------- | --8--7------- |
G|-(b9)-7-- | --(b9)-7- | --7----7----(b9)- | --(b9)-7-- | -----(b9)-7-- |
D|-7------- | -7------- | ----------------- | -7-------- | ------------- |
A|--------- | --------- | ----------------- | ---------- | ------------- |
E|--------- | --------- | ----------------- | ---------- | ------------- |


Enviada por Sem inscrição
Nº de acordes: 5