Sem imagem

Hino Do Avaí

Hinos

485 exibições
De: Luiz Henrique Rosa e Fernando Bastos

Tom: F

E|--------------------------------------------------------------------------------|
B|--------------------------------------------------------------------------------| 
G|-------2-0---0-----0-----0--------------------------------------------------0---|
D|---3-3-----0---3-2---0-0---3-2-0------------------------0---0-0-----2-2-2-3---3-|
A|-3-------------------------------3--3-3-1-0-3-0-3-3-1-0---1-----3-1-------------|
E|--------------------------------------------------------------------------------|


E|-----------------------------------------------------------|
B|-----------------------------------------------------------| 
G|-2-2-0-3-2-0---2-0-------0-2-2-2-0-3-2-0---2-2-2-2-0-3-----|
D|-------------3-----2-2-3-----------------3-------------2-3-|
A|-----------------------------------------------------------|
E|-----------------------------------------------------------|

	  F        Gm              C7		    F
Na ilha formosa, cheia de graça. O time da raça

	F			    Gm		    C7		F
É povo é gente, é bola pra frente, É só coração o meu Avaí 

		  Gm	   F	   C7	     F
Avaí meu Avaí. Da ilha és o Leão

		  Gm	   F	   	C7	   F
Avaí meu Avaí. Tu já nasceste campeão

	F				   Gm	
Não dá para esquecer o seu belo passado

	Gm				     F
Mas a hora é presente e o time vem quente

	F				       Gm
De encontro marcado com seus dias de glória

			  C7		   F
Pois a ordem é vitória Vencer, vencer.


Enviada por Sem inscrição
Nº de acordes: 8