Hilary Duff

The Last Song

Hilary Duff

148 exibições
Tuning: Standard

Guitar 1
Played Once
e|--------------------------------------------------|
B|--------------------------------------------------|
G|----------------2---2h4---2h4---------------------|
D|-----0h2-0--2/4---2-----2-----0-------------------|
A|-0h2----------------------------2-----------------|
E|----------------------------------3---------------|

Guitar 1
Played Once
e|--------------------------------------------------|
B|--------------------------------------------------|
G|--------------------------------------------------|
D|-----0h2-0-2-2-0-----0----------------------------|
A|-0h2-------------2-----0--------------------------|
E|-------------------3-----0-3----------------------|

Guitar 2
Chording At the same time
D, A, Em, G

Then both play:
D                                     A
Then you'll see there's no fear at all 
Em                                       G
You held my hand, we took down that wall
D                                    A
As I look at you, with nothing to say
Em                                      G
Now I understand why you pushed me away

D                       A
I look far and now I see
Em                                 G
That the only one I needed was me.


Enviada por Sem inscrição
Nº de acordes: 4