Gusttavo Lima

Prazo de Validade

Gusttavo Lima

Compartilhar:

(solo) A E F#m (F#m E) 

(intro 2x) 

E|-4/5-5-5-5-6-5----4/5---5-5-5-6-5-5-5/6-| 
B|----------------------------------------| 

E|----2---0-------------------------------| 
B|----2---0-------------------------------| 
G|----2---1-------------------------------| 
D|----4---2-------------------------------| 
A|----4---2-------------------------------| 
E|----2---0-------------------------------|

A              E 
Olha eu te avisei 
                   D 
que um dia eu poderia 
            E 
deixar de amar você 
A                     E 
Não sou produto de vitrine 
         D               E     E F#m 
que você usa pra satisfazer 

     C#m              Bm 
Tudo tem prazo de validade 
  D         E    A 
Acorda pra realidade 
   C#m                Bm 
É melhor você ficar assim 
        D      E        A     E 
Rasgue sua etiqueta de mim.. 

(Refrão) 
     A                 E 
Não vale mais chorar agora 
          F#m               C#m 
Não, não jogue seu orgulho fora 
Bm                   D 
Aqui se faz, aqui se paga 
       A               E 
Foi você que pisou na bola 
     A                 E 
Não vale mais chorar agora 
   F#m                C#m 
A quem você quer enganar 
    Bm               D 
Procure alguem comandado pra 
   E     A 
você mandar... 

(intro 2x) 

(repete tudo) 

(Refrão 2x) 

    Bm               D 
Procure alguem comandado pra 
   E     A 
você mandar...  (2x)
  • Enviada por: tinho
  • Exibições: 520
  • Nº de acordes: 6