Gusttavo Lima
Tom: Bm
Intro: (Bm   G   D   A) 2x 


E|---------7-10-9-7---------------------------|
B|---7-10-----------10-------7-8-10-8-7-------|
G|-----------------------7-9------------9-7---|
D|--------------------------------------------|
A|--------------------------------------------|
E|--------------------------------------------|

D
Fala
                          F#m
Seria covardia ir embora sem dizer por quê
                                       Bm
Existem tantas paginas dessa historia pra escrever
     G
Não venha inventar um fim

D
Fala,
                                       F#m
Depois de tanto tempo juntos você vai deixar no ar
                                       Bm
Será que pensa que agindo assim o amor irá mudar
    G
A tanto ainda pra viver tudo é nada sem você


 D                                D
Nosso amor não acabou e ainda digo mais
                                                F#m
Vou te fazer lembrar de tudo que me prometeu a 10 anos atrás amor e muito mais
      Bm
Tô pagando pra ver
     G                     D      A
Se você é capaz de me esquecer

D                                 D
Nosso amor não acabou e ainda digo mais
                                             F#m
Vou te fazer lembrar de tudo que me prometeu a 10 anos atrás

Amor e muito mais
      Bm
Tô pagando pra ver
     G                     D       A
Se você é capaz de me esquecer

Solo: (Bm   G   D   A) 2x 


E|---------7-10-9-7---------------------------|
B|---7-10-----------10-------7-8-10-8-7-------|
G|-----------------------7-9------------9-7---|
D|--------------------------------------------|
A|--------------------------------------------|
E|--------------------------------------------|


D
Fala
                               F#m
Seria covardia ir embora sem dizer por quê
                                       Bm
Existem tantas paginas dessa historia pra escrever
       G
Não venha inventar um fim

D
Fala,
                                         F#m
Depois de tanto tempo juntos você vai deixar no ar
                                       Bm
Será que pensa que agindo assim o amor irá mudar
    G
A tanto ainda pra viver tudo é nada sem você

D
Nosso amor não acabou e ainda digo mais
                                            F#m
Vou te fazer lembrar de tudo que me prometeu a 10 anos atrás amor e muito mais
      Bm
Tô pagando pra ver
     G                     D       A
Se você é capaz de me esquecer

D
Nosso amor não acabou e ainda digo mais
                                             F#m
Vou te fazer lembrar de tudo que me prometeu a 10 anos atrás

Amor e muito mais
      Bm
Tô pagando pra ver
     G                     D       A
Se você é capaz de me esquecer

Solo Final:

E|---------7-10-9-7-------------------------------|
B|---7-10-----------10-------7-8-10-8-7-----------|
G|-----------------------7-9------------9-7-6-7---|
D|------------------------------------------------|
A|------------------------------------------------|
E|------------------------------------------------|
  • Enviada por: Sem inscrição
  • Exibições: 8.642
  • Nº de acordes: 5