Gustavo Mioto

Despedida de Casal

Gustavo Mioto

Compartilhar:

Capotraste 2ª casa

Tom: G
Intro: G  C  Am  D

(Guitarra sem Capotraste)
e|-------------------------------------------|
B|-------------------------------------------|
G|-------------------------------------------|
D|-7-9-9h11-11/7-7--9-11-11h12--12-----------|
A|---------------------------------h11/12-11-|
E|-------------------------------------------|

Verso 1:
 G                              C
Mesa pra dois num restaurante chique
 Am                             D
Vinho chileno, na entrada um ceviche
 G                         C
Toda cheirosa, fez até penteado
 Am                         D
Batom vermelho e vestido colado

Pré-Refrão:
       G                  
Ela passou a noite sorrindo
 Am
Falou que eu tava lindo
  C                              D
Queria que a noite fosse inesquecível e foi

Refrão:
        G                   C
Foi nosso jantar à luz de adeus
          Am          D
Nossa despedida de casal
          G                        Em
Ela terminou sem derramar nenhuma lágrima
            Am                D
E eu ainda não digeri esse final

        G                   C
Foi nosso jantar à luz de adeus
          Am          D
Nossa despedida de casal
          G                        Em
Ela terminou sem derramar nenhuma lágrima
            Am                D
E eu ainda não digeri esse final
  C             D           G
Tá engasgado aqui aquele tchau

Solo: G  C  Am  D  G  Em  Am  D

(Guitarra sem Capotraste)
e|-------------------------------------------|
B|-------------------------------------------|
G|-------------------------------------------|
D|-7-9-9h11-11/7-7--9-11-11h12--12-----------|
A|---------------------------------h11/12-11-|
E|-------------------------------------------|

e|-------------------------------------------|
B|-------------------------------------------|
G|-------------------------------------------|
D|-12-13-15--------------16-14~-12-12--------|
A|----------13-14-16p14---------14-14-11~----|
E|-------------------------------------------|

Verso 2:
 G                              C
Mesa pra dois num restaurante chique
 Am                             D
Vinho chileno, na entrada um ceviche
 G                         C
Toda cheirosa, fez até penteado
 Am                         D
Batom vermelho e vestido colado

Pré-Refrão:
       G                  
Ela passou a noite sorrindo
 Am
Falou que eu tava lindo
  C                              D
Queria que a noite fosse inesquecível e foi

Refrão:
        G                   C
Foi nosso jantar à luz de adeus
          Am          D
Nossa despedida de casal
          G                        Em
Ela terminou sem derramar nenhuma lágrima
            Am                D
E eu ainda não digeri esse final

        G                   C
Foi nosso jantar à luz de adeus
          Am          D
Nossa despedida de casal
          G                        Em
Ela terminou sem derramar nenhuma lágrima
            Am                D
E eu ainda não digeri esse final
  C             D           G
Tá engasgado aqui aquele tchau
  • Enviada por: Sem inscrição
  • Exibições: 1.661
  • Nº de acordes: 5