Sem imagem
Date: Tue, 11 Jun 1996 18:50:23 -0400 (EDT)
From: * (Olivier Prud'Homme)


  Album: Congratulations I'm Sorry

  and it's pretty easy to play. There are 4 parts in this song.

   part 1:

   --------------2-2-2--3-3--2------------------------------|
   --------------3-3-3--3-3--3------------------------------|
   --------------2-2-2--2-2--2------------------------------|
   --------------0-0-0--0-0--0------------------------------|
   ---------------------------------------------------------|
   ---------------------------------------------------------|

   part 2:"But they do, they do

                   --3--------0-----------|
                   --3--------2-----------|
                   --0--------2-----------|
                   --0--------2-----------|
                   --2--------0-----------|
                   --3--------------------|

    part 3:

             ---------------------------------------|
             ---------------------------------------|
             -----------4---------------------------|
             ---5-------4----------5-5--------------|
             ---5-------2----------5-5--------------|
             ---3------------------3-3--------------|

    part 4: THE SOLO!!

 2-3-3-2-2-0---2-3-2-0----2-3-3-2-2-0----2-3-2-0----7-8-8-7-7-------|
 ------------3---------3--------------3----------3------------10-8--|
 -------------------------------------------------------------------|
 -------------------------------------------------------------------|
--------------------------------------------------------------------|
--------------------------------------------------------------------|

 -7-8-7--------2-3-3-2-2-0----2-3-2-0---------------------------|
-------10-8---------------3----------3---2-3-3-2-2-0-0----------|
 -------------------------------------------------------2-2-----|
 ---------------------------------------------------------------|
 ---------------------------------------------------------------|
 ---------------------------------------------------------------|

 --2-3-3-2-2-0-0------------|
 ----------------3----------|
 ---------------------------|
 ---------------------------|
 ---------------------------|
 ---------------------------|

 Lyrics:

       I wanna take so far
       but they don't want to let us out
       But they do, they do, they do
       I don't wanna walk on that highwire
       They ain't gonna let us down
       But they do, they do, they do

       What I could never believe in
       I was never really even
       And I forgot about the cost
       And then I got lost, I got lost, I got lost, I got lost

       Didn't really wanna live it over
       Or even wanna live it down
       I do, I do, I do

               "SOLO"

       What I could never believe in
       I was never really even
       And I forgot about the cost
       And then I got lost, I got lost, I got lost, I got lost

       Didn't really wanna live it over
       Or even wanna live it down
       I do, I do, I do
       I do, I do, I do
       I do, Oh, I do


     Any corrections? Please E-mail me. *
  • Enviada por: Sem inscrição
  • Exibições: 109
  • Nº de acordes: 0