Sem imagem

Found Out About You

Gin Blossoms

Compartilhar:

Riff:
     C              D          Em             D
E |---------------------------------------------------------------|
B |---------0--------------------------------------0--------------|
G |-----------------2----0---------0--0-------2--------2----0-----|
D |--2--2-------0--------------2----------0-----------------------|
A |---------------------------------------------------------------|
E |---------------------------------------------------------------|


Em        D         Em       D       C      D    Em    D
All last summer in case you don't recall
Em     D         Em       D       C      D    Em       D
I was yours and you ware mine forget          it all
     C      D        Em        D
Is there a line that I could write
 C    D        Em        D
Sad enough to make you cry
Em       D          Em      D       [Riff]
All the lines you wrote to me were lies



      Em         D        Em        D          C      D    Em    D
The months roll past the love that you struck dead
 Em      D   Em   D      C    D   Em   D
Did you love only in my head.
  C         D        Em     D
Things you said and did to me
 C         D      Em   D
Seemed to come so easily
     Em      D          Em      D          [Riff]
The love I thought I'd won you give for free



Refrão:

  C                         G
Whispers at the bus stop
   D           C                             G
I heard about nights out in the school yard
        D          Em    D    Em     D
I found out about you


 Em     D     Em     D        C      D    Em    D
Rumors follow everywhere you go
       Em      D       Em     D      C         D    Em    D
Like when you left and I was last to    know.
        C      D        Em        D
You're famous now and there's no doubt
   C         D     Em      D
In all the places you hang out.
       Em       D         Em       D        [Riff]
They know your name and know what you're about

[Refrao]

[Solo]


   Em           D         Em        D      C     D     Em    D
Street lights blink on through the car window
           Em      D        Em  D  C     D     Em    D
I get the time too often on AM radio
      C       D       Em    D
You know it's all I think about
    C         D          Em        D
I write your name drive past your house
      Em         D       Em         D            [Riff]
Your boyfriend's over I watch your lights go out.



Baixo:

G |----------------------------------------------|
D |----------------------------------------------|  *
A |---------------------0------0--3--2--0--------|  *
E |--0------0-3------3---------------------3-----|
  • Enviada por: Sem inscrição
  • Exibições: 200
  • Nº de acordes: 4