Tom: E
Intro: 
   E/D/G     D/G/D
|e-x-x-x-x-x-x-x-x--x-x-x--x-x-x-x|
|B-3-3-3-3-3-3-3-3--3-3-3--3-3-3-3|
|G-0-0-0-0-0-0-0-0--0-0-0--0-0-0-0|
|D-2-2-2-2-2-0-0-0--0-0-0--0-0-0-0|
|A-x-x-x-x-x-x-x-x--x-x-x--x-x-x-x|
|E-x-x-x-x-x-x-x-x--3-3-3--3-3-3-3|
E/G/D        D/G/D               E/G/D         D/G/D
Good and bad I swear Ive had the both, they're overrated
              F                  Am
But, isn't it fun when you get a hole in one
E/D/G         D/G/D
Some gone bad and some come back
E/G/D         D/G/D
The good ones all get taken
           F                Am
Im calling bluff, you ain't strong enough

Pre-(Refrão):
Bb                   G              Bb             G
Wait and pray you'll pick on me the day I raise my hand
Bb                   G                   C
Guess that I've been blessed but I'll be ***ed

(Refrão):
G    D/F#
Ha - lo
F        C
God only knows
Eb              D            C(bar) D
Right behind me everywhere I go        (2x)

Verso:
E/D/G            D/G/D
Say your prayers when you get scared
    E/D/G           D/G/D
And pray your gon - na make it
              F              Am
And then when done, you keep f***ing up
E/G/D        D/G/D
One day soon I'll disappear
E/G/D              D/G/D                      F
And if you'll come I'll take you somewhere to go
             Am
To keep from growing old

Pre-(Refrão):
Bb                   G              Bb             G
Wait and pray you'll pick on me the day I raise my hand
Bb                   G                   C
Guess that I've been blessed but I'll be ***ed

(Refrão)
G    D/F#
Ha - lo
F        C
God only knows
Eb              D            C(bar) D
Right behind me everywhere I go        (2x)

B
Eb            D
Disappear the light is fading
Eb              F
Disappear out - side their range
Eb            D
Disappear I'm tired of waiting
Eb             F           G    D/F#  F
Disappear be - fore we get aw - a - - y

Solo: 
 "Awa - - - y"
e|----------------------------------------------------------------------------------|
B|-12~--8~--3~-------------------------8--10-10-10-8-7--------7-8-10--7--8---10-----|
G|----------------9-9-9-7-----8-8-8-10------------------9-9-9---------9b-10b-12b----|
D|------------------------10--------------------------------------------------------|
A|----------------------------------------------------------------------------------|
E|----------------------------------------------------------------------------------|
e|----------7-----------------------------------------------------------------------|
B|-8-8-8-10----7-7-7-8-10-----------8-10-----------------------8--10-10-10-8-7------|
G|-------------------------10-10-10-------9-9-9-7-----8-8-8-10-----------------9-9-9|
D|------------------------------------------------10--------------------------------|
A|----------------------------------------------------------------------------------|
E|----------------------------------------------------------------------------------|
e|---------14-15-17-----------------------------------------------------------------|
B|-7-8-10---------------------------------------------------------------------------|
G|---------11-12-14-----------------------------------------------------------------|
D|----------------------------------------------------------------------------------|
A|----------------------------------------------------------------------------------|
E|----------------------------------------------------------------------------------|

(Refrão)
G    D/F#
Ha - lo
F        C
God only knows
Eb              D            C(bar) D
Right behind me everywhere I go        (2x)


 (F#)    D/F#)


Enviada por Sem inscrição
Nº de acordes: 14