Foo Fighters

Everlong

Foo Fighters

3.512 exibições
Tom: 
Intro: F#/D   Bsus2   Gsus2   Bsus2  (clean)
      F#/D   Bsus2   Gsus2   Bsus2  (clean + distortion) (drums enter)
      F#/D   Bsus2   Gsus2   Bsus2  (distortion + solo riff)
Riff1 (intro + verse) (solo riff on G-string)
e|-----------------------------------------------------------------------------------------
B|-----------------------------------------------------------------------------------------
G|------(9)---(9)(9)---(9)------(9)---(9-11--9)---------(9)---(9)-(9)---(9)------(9-11--9)-
D|------11----11-11----11-------11----11-11-11----------11----11--11----11-------11-11-11--
A|-------9-----9--9-----9--------9-----9--9--9-----------9-----9---9-----9--------9--9--9--
D|-0--0-----0--------0-----0--0-----0-----------0--9--9-----9---------9-----9--9-----------
        F#/D                                       Bsus2
e|----------------------------------------------------------------------------
B|----------------------------------------------------------------------------
G|----------------------------------(9)---------(9)---------(9)-----(9-11-9)--
D|-----------7-----------7----------11----------11----------11-----------11---
A|-----------5-----------5-----------9-----------9-----------9------------9---
D|--0--5--5-----5--5--5-----5~/9--9-----9--9--9-----9--9--9-----9--9--9-----9-
       Gsus2                   Bsus2

F#/D             Bsus2                        Gsus2  Bsus2
Hello____,  I've wait_ed here for_ you___,        e__verlong__ 
F#/D          Bsus2                   Gsus2     Bsus2
To__night_, I throw myself into__ and out of the red, out of her head she sang_
F#/D   Bsus2   Gsus2   Bsus2  (distortion + solo riff)
F#/D             Bsus2                Gsus2   Bsus2
Come_ down__ and waste away with me_, down_ with_ me__ 
F#/D            Bsus2             Gsus2       Bsus2
Slow how__, you wanted it to be__, I'm over my head, out of her head she sang_
Riff2
e|---------------------------------------|
B|---------------------------------------|
G|--6-6-6-7-7-7-9-9-9-11-11-11-11/12-11--|
D|--x-x-x-x-x-x-x-x-x-x--x--x---x----x---|
A|--4-4-4-5-5-5-7-7-7-9--9--9---9/10-9---|
D|--0-0-0-0-0-0-0-0-0-0--0--0---0----0---|
[Pre-chorus]
Riff2    A5     Riff2
            And I_ wonder__
A5             Riff2
  When I sing along with you__
[Chorus]
B5                          G5              D5
  If every thing could ever be this real forever_
B5                       G5            D5
  If anything could ever be this good a_gain
B5                         G5          D5
  The only thing I'll ever ask of you_
D5                       A5                G5      G5*
You gotta promise not to stop when I say__ when__,   she said
 
F#/D   Bsus2   Gsus2   Bsus2  (distortion + solo riff)
F#/D                Bsus2                 Gsus2   Bsus2
Breathe__ out__, so I can breathe you in, hold_ you_ in_ 
F#/D         Bsus2                    Gsus2       Bsus2
And now__, I know you've always been_  out of your head, out of my head I sang
[Pre-chorus]
Riff2    A5     Riff2
            And I_ wonder__
A5             Riff2
  When I sing along with you__
[Chorus]
B5                          G5             D5
  If every thing could ever feel this real forever_
B5                       G5            D5
  If anything could ever be this good a_gain
B5                         G5          D5
  The only thing I'll ever ask of you_
D5                       A5                G5      G5*
You gotta promise not to stop when I say__ when__,   she said
F#/D   Bsus2   Gsus2   Bsus2  (clean)
F#/D   Bsus2   Gsus2   Bsus2  (clean + distortion + solo riff) (drums enter)
Riff3
e|------------------------------------------------|
B|------------------------------------------------|
G|--18-18-18-16-16-16-14-14-14-12-12-12-11/12-11--|
D|--x--x--x--x--x--x--x--x--x--x--x--x---x----x---|
A|--16-16-16-14-14-14-12-12-12-10-10-10--9/10-9---|
D|--0--0--0--0--0--0--0--0--0--0--0--0---0--------|
 
[Bridge]
Riff2 & Riff3 (at the same time)
Riff2 & Riff3 (at the same time)
                            and
Riff2 & Riff3 (at the same time)
I wonder__
[Chorus]
B5                          G5             D5
  If every thing could ever feel this real forever_
B5                       G5            D5
  If anything could ever be this good a___gain__
B5                         G5          D5
  The only thing I'll ever ask of you_
D5                       A5                G5      G5*    G5*      G5*
You gotta promise not to stop when I say__ when__,
Chords:
Drop-D tuning
(DADGBe)
F#/D  09(11)xxx
Bsus2 99(11)xxx
Gsus2 557xxx
A5    777xxx
B5    999xxx
G5    555xxx
D5    00023x
G5*   55567x


Enviada por Sem inscrição
Nº de acordes: 8