FireHouse

Love Of a Lifetime

FireHouse

Compartilhar:

Tom: G

Intro: 

    G                 D/F#                  Em
e|-----------3-----------------0---------|----------3---------|
B|---------3---3-------------3---3-------|-------------5------|
G|-------0-------0---------2-------2-----|-------4-------4----|
D|-----0-----------0-----0-----------0---|-----2-----------2--|
A|---------------------------------------|--------------------|
E|--3-----------------2------------------|--0-----------------|



    D9                  Am7               Bm7              C    
e|---------0---------|---------0--------------2---------|--------0-------|
B|-------3---3-------|-----------1--------------3-------|----------1-----|
G|-----2-------2-----|-------0-----0--------2-----2-----|------0-----0---|
D|--0------------0---|-----2---------2----4---------4---|----2---------2-|
A|-------------------|--0--------------2----------------|--3-------------|
E|-------------------|----------------------------------|----------------|



    D9             D       D4      D
e|---------0-------2-------3-------2-----------|
B|-----------3-------3-------3-----------3-----|
G|-----2-------2-------2-------2-----------2---| * esta parte é tocada durante
D|--0------------------------------------------| o primeiro e o terceiro verso
A|---------------------------------------------|
E|---------------------------------------------|


Verso 1:
I guess the time was right for us to say
we'd take our time and live our lives
together day by day.
We'll make a wish and send it on a prayer.
We know our dreams can all come true

with love that we can share.    E|-12/--|


Verso 2:
     Am7         Bm7    
With you I never wonder
   Am7               Bm7
will you be there for me.
     Am7           Bm7
With you I never wonder.
           C       D
You're the right one for me.

Refrão:
  G                     Bm       C      D
I finally found the love of a lifetime.
  G                    Bm            C    D
A love to last my whole life through.
  G                     Bm       C      D
I finally found the love of a lifetime.
  A           B         C         
Forever in my heart, I finally found the
  D           G    
love of a lifetime.

base do 1° Solo: Bm C D

Solo 1:
         

E|-----------------|----------------------------------------------------
B|--/8--8/10-8-7---|-7/8-7---------------8/10~~~~--8--------------------
G|-----------------|-------9---9/11-9-7---------------------------------
D|-----------------|----------------------------------------------------
A|-----------------|----------------------------------------------------
E|-----------------|----------------------------------------------------


Verso 3:
With every kiss our love is like brand new,
and every star up in the sky was made
for me and you.
Still we both know that the road is long.
We know that we will be together
because our love is strong.

Refrão:

base do 2° Solo: (C B A D)

Solo 2:


E|-----------------|-----------------------------|----------------------
B|--/8--8/10-8-7---|-7/8-7---------------8^^~~~~-|-----8-10^(10)^p8---8-
G|-----------------|-------9---9h11p9-7----------|---9--------------7---
D|-----------------|-----------------------------|----------------------
A|-----------------|-----------------------------|----------------------
E|-----------------|-----------------------------|----------------------

       


E|-----------------|------------17--------|-----------15------22-----^^^
B|--10^p8---8------|----15-17^-----^17p15-|-17--------------------------
G|--------9---9----|-16-------------------|-----------------------------
D|-----------------|----------------------|-----------------------------
A|-----------------|----------------------|-----------------------------
E|-----------------|----------------------|-----------------------------


A                    C#        D      E/G#
finally found the love of a lifetime.
   A                  C#             D    G# Bb
A love to last my whole life through.
   A                  C#        D      E
I finally found the love of a lifetime.
   B        C#         D
Forever in my heart, I finally found the
   E             A  C# D
love of a lifetime.
    E         A     C#  D
Love of a lifetime.
   E                    A    C#  D
I finally found the love
E        B                C#
 Oo!  Forever in my heart,
    D                   E
I finally found the love ........
of a lifetime.

    A                C#m              D9            E                  A
e|---------0----------------4-------|-------0---------------0----------0--|
B|-------2---2----------------5-----|-----3---3---------------0--------0--|
G|-----2-------2---------4------4---|---2-------2---------1-----1------2--|
D|---2-----------2-----6----------6-|-0-----------0-----2---------2----2--|
A|-0---------------/4---------------|-----------------2----------------2--|
E|----------------------------------|---------------0------------------2--|
  • Enviada por: Sem inscrição
  • Exibições: 124
  • Nº de acordes: 18