FireHouse
Tom: Am

  e|---------------------------------------------------------------
  B|-0~1-0-----------------3~5-3—----------------------------------
  G|-------0-0~2------0~2------------------------------------------
  D|----------------3----------------------------------------------
  A|---------------------------------------------------------------
  E|---------------------------------------------------------------

  e|---------------------------------------------------------------
  B|-0~1-0-----------------3~5-3—-0~1-0----------------------------
  G|-------0-0~2------0~2----------------0-0~2---------------------
  D|----------------3----------------------------------------------
  A|---------------------------------------------------------------
  E|---------------------------------------------------------------

Am                   F                         Am
Bet I've seen that face a hundred times or more
                F   G
Then you shed a tear
Am                     F                                    G    Em  
What do you want from me? Is it something more than I can give?
               F
Just let me know
           G         Em        F 
Then you walk in my arms and say
            G
I need you more today

[refrão]

C     F     G
Dream baby dream
C            F              G
Kiss me goodnight and I'll rock you to sleep
Am     F    G    Em                 F 
Dream baby dream.... just slippin' away
 
  e|---------------------------------------------------------------
  B|-0~1-0-----------------3~5-3—----------------------------------
  G|-------0-0~2------0~2------------------------------------------
  D|----------------3----------------------------------------------
  A|---------------------------------------------------------------
  E|---------------------------------------------------------------

  e|---------------------------------------------------------------
  B|-0~1-0-------------------------0~1-0---------------------------
  G|-------0-0~2------0~2--0~2-0---------0-0~2---------------------
  D|----------------3----------------------------------------------
  A|---------------------------------------------------------------
  E|---------------------------------------------------------------

Am                 F                            Am
Sometimes I'm so afraid there's nothing I can do
                  F   G
You're always on my mind
Am                       F                           G    Em
You know my hands were tied, and you know how hard I tried
                 F
To never let you go
          G         Em        F       G
Then you walk in my arms and say goodbye

[refrão]

C     F     G
Dream baby dream
C           F               G      
Kiss me goodnight and I'll rock you to sleep
Am    F     G    Em                  F
Dream baby dream.... just slippin' away

[ponte]

Dm                           G
Down on my knees I pray for you every day
Dm                     G
I've been alone since you went away

Solo

  e|---------------------------------------------------------------
  B|---------5-6-8--6-5-6--5~6~5-—---------------------------------
  G|-----5-7---------------------7-5-7b-5--------------------------
  D|-5-7----------------------------------5------------------------
  A|---------------------------------------------------------------
  E|---------------------------------------------------------------

  e|--8-10-10~12--10-12-12~13--12-10-8---8~10-8~7------------------
  B|-8--------------------------—------8-----------8-8-------------
  G|---------------------------------------------------------------
  D|---------------------------------------------------------------
  A|---------------------------------------------------------------
  E|---------------------------------------------------------------

[refrão]
 
C     F     G
Dream baby dream
C           F               G
Kiss me goodnight and I'll rock you to sleep
Am    F     G     Em                F 
Dream baby dream.... just slippin' away

(Solo do Final)

 B|---1---5b---3---------------—---------------------------------( 2x)
  • Enviada por: Sem inscrição
  • Exibições: 43
  • Nº de acordes: 6