Engenheiros do Hawaii

Outra Freqüência (Acústico MTV)

Engenheiros do Hawaii

1.562 exibições
Tom: A
Intro: A E/G# G E
(A E/G# G F#M) (Acompanha o solo)


e|-0-----------------------------|
B|-2-2h0-------2h0---------------|
G|-2-----2-2/4-----2-2/4/2---2---|
D|-2-----------------------4-----|
A|-0-----------------------------|
E|-------------------------------|

A            E/G#
  Seria mais fácil 
  G        F#M
Fazer como todo mundo faz
A                E/G#  G
  O caminho mais curto 
   F#M
Produto que rende mais
A            E/G#
  seria mais fácil
  G        F#M
Fazer como todo mundo faz
A            E/G#  G
  Um tiro certeiro 
  F#M               A F#M
Modelo que vende mais

     E
Mais nós
              F#M
Dançamos no silêncio
E                  F#M
  Choramos no carnaval
E                         F#M
  Não vemos graças nas gracinhas da TV
   G                             E
Morremos de rir no horário eleitoral

(A E/G# G F#M) (Acompanha o solo)

e|-0-----------------------------|
B|-2-2h0-------2h0---------------|
G|-2-----2-2/4-----2-2/4/2---2---|
D|-2-----------------------4-----|
A|-0-----------------------------|
E|-------------------------------|

A            E/G#
  Seria mais fácil 
  G        F#M
Fazer como todo mundo faz
A       E/G#        G 
  Sem sair do sofá 
   F#M                  
Deixar a ferrari pra tráz
A            E/G#
  Seria mais fácil 
  G        F#M
Fazer como todo mundo faz
A            E/G#
  O milésimo gol
   G                  F#M  A F#M
Sentado na mesa de um bar
     E
Mais nós 
                     F#M
Vibramos em outra freqüência
E                         F#M
  Sabemos que não é bem assim
E                          F#M
  se fosse fácil achar o caminho das pedras 
       G                              E
Tantas pedras no caminho não seriam ruim

(A E/G#) (A E/G# G F#M)

     E
Mais nós 
                     F#M
Vibramos em outra freqüência
E                         F#M
  Sabemos que não é bem assim
E                          F#M
  se fosse fácil achar o caminho das pedras 
       G                              E
Tantas pedras no caminho não seriam ruim

(A E/G# G F#M) (Acompanha o solo)

e|-0-----------------------------|
B|-2-2h0-------2h0---------------|
G|-2-----2-2/4-----2-2/4/2---2---|
D|-2-----------------------4-----|
A|-0-----------------------------|
E|-------------------------------|


F E A


Enviada por Sem inscrição
Nº de acordes: 6