Dazaranha

Vagabundo Confesso (Versão 2)

Dazaranha

533 exibições
Tom: G
Intro: (Em  C) 
 Em                         C9                            G9 Repete mais uma vez o acorde
e-0----------------0-----------------------------0---------0----------------0--------
b-0--------------0---0---0------------3------3-----3---0---3--------------3---3---3--
g-0-------0----0-------0----------0--------0---0-----0-----0-------0----0-------0----
d-2-----2----2------------------2---0----------------------0-----0-------------------
a-2---2----------------------3-----------3-----------------2---2---------------------
E-0-0------------------------------------------------------3-3--------3--------------


e-----------------|
b-----------------|
g-----------------|Parte da Guitarra
d----2-4-5-7-7~~--|
a-3~--------------|
E-----------------|
                       
G                  C                G
Sou vagabundo eu confesso, da turma de 71
          C                        G
Já rodei o mundo e nunca pude encontrar
                      C                            G
Lugar melhor para um vagabundo, que um rio à beira mar
         C                          G 
Odoiá odofiaba salve a minha mãe Iemanjá 
                           C
Que foi que me deram pra levar
                              G 
Pra dona Janaína que é sereia do mar
                        C
Pente de osso laços e fitas 
                            G
Pra dona Janaína que é moça bonita
 Em            A            Am         Em     A
Café na cama eu gosto, com suco de laranja, mamão 
   Am                 Em
E um fino em cima da mesa
             A                   Am     Em
Amanhã quando você, quando você for trabalhar 
       A            Am             Em
Tome cuidado que é pra não me acordar
      A                 Am            Em
Eu durmo tarde, a noite é minha companheira 
                    A             Am              Em    A           Am
Salve o amor salve a amizade, a malandragem, a capoeira      A capoeira
Solo do Final: G C9 (Acompanhamento) 2x

e|-10-12-10----10-12-10----10-12-10----10-12-10-----
b|----------12----------12----------12----------12--
g|--------------------------------------------------


e-7-8-7----7-8-7----7-8-7----7-8/14--
b-------10-------10-------10---------
g------------------------------------


e-15-17-15----15-17-15----15-17-15----15-17-15---7-8-7--------------------------------|
b----------17----------17----------17------------------10-8-10-8-7-8-10-8-7-----------|
g---------------------------------------------------------------------------9-7~~-----|
d-------------------------------------------------------------------------------------|


Enviada por Sem inscrição
Nº de acordes: 5