CPM 22

Reflexões

CPM 22

118 exibições
---Acordes--

   C#   B   A    C
E|--9---7---5----8-----|
B|-11---9---7---10-----|
G|-11---9---7---10-----|   
D|---------------------|
A|---------------------|
E|---------------------|

C#       B    C#      B       C#  
   quem pode mais, quem sabe mais
B       C#            B  
   não estou contra você
C#     B    C#    B       C#
   não vou falar sobre ideais
B      C#             B
   não vou julgar ninguem

B     A                      ( RIFF 1 ) 2x
sua alma está perdendo a cor
B      A                  ( RIFF 1 ) 2x
seus olhos refletem a dor
B     A
sem amor

(RIFF 1) os q estão com ->* tokar abafado  

    * * * * * * * *          
E|--7-7-7-7-7-7-7-7-7/8--5-7---|
B|--9-9-9-9-9-9-9-9-9/10-7-9---|
D|--9-9-9-9-9-9-9-9-9/10-7-9---|   2x
G|-----------------------------|
A|-----------------------------|
E|-----------------------------|


C#   B        C#    
   andar pra trás
B      C#
estaguinar
B      C#           B
   não ter pra onde ir
C#  B   C#
   observar
B        C#
falar demais
B        C#          B
   a inveja não tem fim

B     A                     (RIFF 1) 2x
sua alma está perdendo a cor
B     A                  (RIFF 1) 2x
seus olhos refletem a dor
B     A             
sem amor no coração

(RIFF 2) eh quando ele fala ''estupidez''

E|--x-x-x-x-7-x-x-x-x-7-x-x--|
B|--x-x-x-x-9-x-x-x-x-9-x-x--|
G|--x-x-x-x-9-x-x-x-x-9-x-x--|
D|---------------------------|
A|---------------------------|
E|---------------------------|

B       A                    B                  (Riff 2)
fique o mais longe possível com a sua doença (estupidez)
B            A             B     (Riff 2)
o ódio é o fruto da ignorância (estupidez)
B       A                    B                 (Riff 2)
fique o mais longe possível com a sua doença (estupidez)(2x)


E|--10-10-5-7~-10-10-5-7~-10-12-14----------------------------------
B|-------------------------------12-14------------------------------
G|-------------------------------------12~-12h14-12-14/15-14-12-9~--
D|------------------------------------------------------------------
A|------------------------------------------------------------------
E|------------------------------------------------------------------

E|------------------------------------------------------------------
B|------------------------------------------------------------------
G|-12h14-12-14/15-14-12-9~-12h14-12-14/15-14-12-9~-12h14-12-14/15--
D|------------------------------------------------------------------
A|------------------------------------------------------------------
E|------------------------------------------------------------------


E|------------------------------------------------------------------
B|------------------------------------------------------------------
G|-15-15-15-15-15-15-15-15-12h14-12-14/15-14-12-9~-12h14-12-14/15---
D|------------------------------------------------------------------
A|------------------------------------------------------------------
E|------------------------------------------------------------------

E|------------------------------------------------------------------
B|------------------------------------------------------------------
G|-14-12-9~-12h14-12-14/15-14-12-9~-12h14-12-14/15-15-15-15-15-15---
D|------------------------------------------------------------------
A|------------------------------------------------------------------
E|------------------------------------------------------------------

E|------------------------------------------------------------------|
B|------------------------------------------------------------------|
G|-15-15-15-1514-15-15-15-15-15-15-15-15-15-12h14-9-12h14-9~--------|
D|------------------------------------------------------------------|
A|------------------------------------------------------------------|
E|------------------------------------------------------------------|

no finalzinho toca 

Com a sua doença !

E|-10-10-5-7~-|
B|------------|
G|------------|
D|------------|
A|------------|
E|------------|


->Ae pessoal aki eh os Gêmeos Fabio & Flavio, dedicamos essa musica
  para o nosso amigo Batera Alex...valew por tudo velhu...CPM 22 na veia


Enviada por Sem inscrição
Nº de acordes: 4