CPM 22

Pregur (Versão 2)

CPM 22

33 exibições
Tom: F

Introdução
e|-----------------------------------------------------------------------|
B|-----------------------------------------------------------------------|
G|10-10----------------10-10----------------10-10----------------10-10---|
D|10-10-10-10-10-10-10-10-10-10-10-10-10-10-10-10-10-10-10-10-10-10-10-10|
A|8—8---10-10-10-10-10-8—8---10-10-10-10-10-8—8---10-10-10-10-10-8—8---10|
E|------8—-8—-8-—8—-8--------8—-8—-8-—8—-8--------8—-8—-8-—8—-8—-------8-|
 |Guitarra base
 |
e|-----------------------------------------------------------------------|
B|-----------------------------------------------------------------------|
G|-------5-5-5-5-5-5-5--------9-9-9-9-9-9-9-------12-12-12-12-12---------|
D|-----------------------------------------------------------------------|
A|-------3-3-3-3-3-3-3--------7-7-7-7-7-7-7-------10-10-10-10-10---------|
E|-----------------------------------------------------------------------|
  Guitarra solo

Verso (1 parte)
e|---------------------------------------------------------------------|
B|---------------------------------------------------------------------|
G|-10-10----7-7-7-7-7-5-5-5-5-5-10-10----10-10-10-10-10-10-10-10-10-10-|
D|-10-10-10-7-7-7-7-7-5-5-5-5-5-10-10-10-10-10-10-10-10-10-10-10-10-10-|
A|-8—8---10-5-5-5-5-5-3-3-3-3-3-8—8---10-8--8--8--8--8--8--8--8--8--8--|
E|-------8----------------------------8--------------------------------|

e|-------------------------------------------------------------------|
B|-------------------------------------------------------------------|
G|-10-10----7-7-7-7-7-5-5-5-5-5-10-10----10-10-10-10-10--10-10----10-|
D|-10-10-10-7-7-7-7-7-5-5-5-5-5-10-10-10-10-10-10-10-10--10-10-10-10-|
A|-8—8---10-5-5-5-5-5-3-3-3-3-3-8—8---10-8--8--8--8—8----8---8-10-8--|
E|-------8----------------------------8------------------------8-----|

Verso (2 parte)
e|---------------------------------------|
B|---------------------------------------|
G|-5-5-5-5-5-----------7-7-7-7-7-7-7-7-7-| Repete 4 vezes
D|-5-5-5-5-5-5-5-5-5-5-7-7-7-7-7-7-7-7-7-|
A|-3-3-3-3-3-5-5-5-5-5-5-5-5-5-5-5-5-5-5-|
E|-----------3-3-3-3-3-------------------|

Refrão
e|---------------------------------------------------|
B|---------------------------------------------------|
G|-----------7-7-7-7-7-5-5-5-5-5-7-7-7-7-7-7-7-7-7-7-| Repete 2 vezes
D|-5-5-5-5-5-7-7-7-7-7-5-5-5-5-5-7-7-7-7-7-7-7-7-7-7-|
A|-5-5-5-5-5-5-5-5-5-5-3-3-3-3-3-5-5-5-5-5-5-5-5-5-5-|
E|-3-3-3-3-3-----------------------------------------|

Pós Refrão
e|-----------------------------------------------------|
B|-----------------------------------------------------|
G|-9-9-9-9-9-12-12-12-12-12-14-14-14-14-14-14-14-14-14-| Repete 4 vezes
D|-9-9-9-9-9-12-12-12-12-12-14-14-14-14-14-14-14-14-14-|
A|-7-7-7-7-7-10-10-10-10-10-12-12-12-12-12-12-12-12-12-|
E|-----------------------------------------------------|

Repete refrão 2 vezes, solo (base do refrão)


Enviada por Sem inscrição
Nº de acordes: 1