CPM 22

Perdas

CPM 22

174 exibições
Tom: G	
Intro: G Am G C9

 G                                  Am7
Temos que absorver as perdas que a vida nos impõe,
   G/B                                        C9
As perdas que às vezes nos derrubam e não há tempo pra depois
G                                          Am7
Vivo sempre de cabeça erguida e encontro forças dentro de mim
  G/B                                     C9
E agora restam aquelas velhas fotos do tempo que passou...

 C9          D           Em    D5
Já sei, não é a primeira vez...
 C9          D            Em   D5
Cansei, de perguntar por que...
C9            D4               G G/F#    Em
Só o que me deixa puto é não ter tido tempo pra dizer,
C9          D
Tudo pra você!

G               D/F#    Em7         D            C9
Melhor deixar rolar, nada como um dia após o outro...
G               D4/F#    Em         D            C9
Continuar, viver, tenho que me levantar de novo
      D                       G     Am    Bm    C9
e acreditar "Dias melhores virão"

Base do Solo: G  Am  Em  C9

E|-----3-------3------3-----3---3--5-3-----------------------------------------------------|
B|-2h3----2h3----2h3----2h3--2h3-------5-3--------------------------------------3-3--------|
G|-----------------------------------------5--0-2-0-2-4-4-----0-2-4-4-2-0-0-4-2------------|
D|-----------------------------------------------------------------------------------------|
A|-----------------------------------------------------------------------------------------|
E|-----------------------------------------------------------------------------------------|

E|-------------------------------------------------------------------------|
B|-------------------------------------------------------------------------|
G|-----------0-2/4-5p4-----------------------------------------------------|
D|-------0h2-----------5---5-----------------------------------------------|
A|-----2-----------------5-------------------------------------------------|
E|-2/3---------------------------------------------------------------------|

E|10-10-10-------10-10-10------10-10------8-8-8-7-7-7---------------------------------------|
B|---------8-8-8---------8-8-8-------8-8-------------8-8------------8-----------------------|
G|-------------------------------------------------------9--9-9-7-9-------------------------|
D|------------------------------------------------------------------------------------------|
A|------------------------------------------------------------------------------------------|
E|------------------------------------------------------------------------------------------|

E|10-10-10-------10-10-10------10-10-----10/12-12-12-10-10/7--7-7-8-7--------------------------|
B|---------8-8-8---------8-8-8-------8-8------------------------------10-8-10-8----------------|
G|---------------------------------------------------------------------------------------------|
D|---------------------------------------------------------------------------------------------|
A|---------------------------------------------------------------------------------------------|
E|---------------------------------------------------------------------------------------------|

 C9          D           Em    D4
Já sei, não é a primeira vez...
 C9          D            Em   D
Cansei, de perguntar por que...

C9            D               G D/F#    Em            C         D
E o que me faz feliz é ter certeza que você está bem, sinto você!

G               G/F#    Em7         D4            C9
Melhor deixar rolar, nada como um dia após o outro...
G               D/F#    Em         D4            C9
Continuar, viver, temos que nos encontrar de novo
 D                          C
e acreditar "Dias melhores virão"
D11
E acreditar...

G               D4/F#    Em7         D4            C9
Melhor deixar rolar, nada como um dia após o outro...
D
Continuar, viver,
G               G/F#    Em         D4            C9
E quando o sol nascer temos que recomeçar de novo
D                              G
e acreditar "Dias melhores virão."
D/F#       Em7        D4              C
Espere o melhor, prepare-se para o pior
D                  G
e aceite o que vier...
D/F#        Em7         D4             C
Espere o melhor, prepare-se para o pior
D4
e aceite o que
D9                 G
e aceite o que vier!!!


Enviada por Sem inscrição
Nº de acordes: 19