CPM 22

Não Sei Viver Sem Ter Você (Versão 2)

CPM 22

892 exibições
Tom: G
Intro: E   


verso1: E, G, D, C, A, C
e||------------------------------------------------------------------------------|
B||------------------------------------------------------------------------------|
G||------------------------------------------------------------------------------|
D||-9-9-9-9-9-9-9-9-9-9-9-12-12-12-12-12-12-12-12-12-12-12-7-7-7-7-7-7-7-7-7-7-7-|
A||-7-7-7-7-7-7-7-7-7-7-7-10-10-10-10-10-10-10-10-10-10-10-5-5-5-5-5-5-5-5-5-5-5-|
E||------------------------------------------------------------------------------|
pm  x x     x x     x x    x  x        x  x        x  x    x x     x x     x x  

e||-----------------------------------------------------------||
B||-----------------------------------------------------------||
G||-----------------------------------------------------------||
D||-5-5-5-5-5-5-5-5-5-5-5-2-2-2-2-2-2-2-2-2-2-2-5-5-5-5-5-5-5-||
A||-3-3-3-3-3-3-3-3-3-3-3-0-0-0-0-0-0-0-0-0-0-0-3-3-3-3-3-3-3-||
E||-----------------------------------------------------------||
pm  x x     x x     x x   x x     x x     x x   x x     x x   

nao há mais desculpas voce vai ter que me entender
quando olhar pra traz procurando e nao me ver
chegou a hora de recomeçar

verso2: E, G, D, C
   guitarra distorcida
e||-----------------------------------||
B||-----------------------------------||
G||-9-----12----------7-----5---------||
D||-9-----12----------7-----5---------||
A||-7-----10----------5-----3---------||
E||-----------------------------------||
 | guitarra limpa
e||-----------------------------------||
B||-----------------------------------||
G||-------------------------------5---||
D||-----9-------12--------7-----5---5-||
A||---7------10----10---5-----3-------||
E||-----------------------------------||

ter cada coisa em seu lugar 
tentar viver sem recordar jamais
e se a saudade me deixar falhar deixar o tempo tentar te apagar

prerefrao: C/B, C, G, D, C/B, C, D
e||---------------------------------------------------|
B||---------------------------------------------------|
G||---------------------------------------------------|
D||-5-5-5-5-5-5-5-5-5-5-5-5-5-5-5-5-5-5-5-5-5-5-5-5-5-|
A||-2-2-2-2-2-2-2-2-2-2-2-2-2-2-3-3-3-3-3-3-3-3-3-3-3-|
E||---------------------------------------------------|
          Te ligar de madrugada sem saber o que dizer

e||---------------------------------------------------------|
B||---------------------------------------------------------|
G||---------------------------------------------------------|
D||-----------------------------7-7-7-7-7-7-7-7-7-7-7-7-7-7-|
A||-5-5-5-5-5-5-5-5-5-5-5-5-5-5-5-5-5-5-5-5-5-5-5-5-5-5-5-5-|
E||-3-3-3-3-3-3-3-3-3-3-3-3-3-3-----------------------------|
          esperando ouvir sua voz e voce nem pra me atender

e||---------------------------------------------------||
B||---------------------------------------------------||
G||---------------------------------------------------||
D||-5-5-5-5-5-5-5-5-5-5-5-5-5-5-5-5-5-5-5-5-5-5-5-5-7-||
A||-2-2-2-2-2-2-2-2-2-2-2-2-2-2-3-3-3-3-3-3-3-3-3-3-5-||
E||---------------------------------------------------||
                   nem   ao     menos   pra   dizer

refrao:
e||-------------------------------------------------------------||
B||-------------------------------------10-10-------------10-10-||
G||-------------7-7-7-7-7-7-5-5-5-5-5-5-------5-5-5-5-5-5-------||
D||-5-5-5-5-5-5-7-7-7-7-7-7-5-5-5-5-5-5-7--7--5-5-5-5-5-5-7--7--||
A||-5-5-5-5-5-5-5-5-5-5-5-5-3-3-3-3-3-3-------3-3-3-3-3-3-------||
E||-3-3-3-3-3-3-------------------------------------------------||

Que nao vai voltar
nao vai tentar me entender 
que eu nao fui nada pra voce
que eu deveria te deixar em paz
que eu já nao sei mais
nao sei viver sem ter voce
hoje eu queria te eskecer mas quanto mais eu tento mais eu lembro
nao sei viver sem ter voce

riff:
e||--------||
B||--------||
G||--------||
D||-9/12/9-||
A||-7/10/7-||
E||--------||

verso3: E, G, D, C, A, C
é dificl de aceitar 
e começar do zero levantar e caminhar

e||------------------------------------------------------------------------------|
B||------------------------------------------------------------------------------|
G||------------------------------------------------------------------------------|
D||-9-9-9-9-9-9-9-9-9-9-9-12-12-12-12-12-12-12-12-12-12-12-7-7-7-7-7-7-7-7-7-7-7-|
A||-7-7-7-7-7-7-7-7-7-7-7-10-10-10-10-10-10-10-10-10-10-10-5-5-5-5-5-5-5-5-5-5-5-|
E||------------------------------------------------------------------------------|
pm  x x     x x     x x    x  x        x  x        x  x    x x     x x     x x  

e||---------------------------------------------------------------||
B||---------------------------------------------------------------||
G||---------------------------------------------------------------||
D||-5-5-5-5-5-5-5-5-5-5-5-2-2-2-2-2-2-2-2-2-2-2-5-5-5-5-5-5-5-5-5-||
A||-3-3-3-3-3-3-3-3-3-3-3-0-0-0-0-0-0-0-0-0-0-0-3-3-3-3-3-3-3-3-3-||
E||---------------------------------------------------------------||
pm  x x     x x     x x   
 
Perceber que quem ama já nao se importa com voce
e acordar sozinho ouvindo o som da sua TV
chegou a hora de recomeçar

verso4: E, G, D, C
   guitarra distorcida
e||----------------------------------------||
B||----------------------------------------||
G||------9-----12----------7-----5---------||
D||------9-----12----------7-----5---------||
A||-5/8/-7-----10----------5-----3---------||
E||----------------------------------------||
 | guitarra limpa
e||----------------------------------------||
B||----------------------------------------||
G||------------------------------------5---||
D||----------9-------12--------7-----5---5-||
A||--------7------10----10---5-----3-------||
E||----------------------------------------||

Acreditar que pode ser melhor assim
tentar eskecer e ser feliz te deixar pra depois
A cada dia que eu morrer espero que vc morra


Enviada por Sem inscrição
Nº de acordes: 6