CPM 22

Mentiras Novas

CPM 22

320 exibições
Tom: G

solo Escrita por Tárcio( tarco_roses@ig.com.br )
Base por Rafael 

Intro
Base - G , E
Solo-
|------------------------------------------------------------------|
|-5--3/5/3---5--3/5/3---5--3/5/3--5--3/5/3----------------------*--|
|-------------------------------------------5-4-2-4--0--5-4-2-4-0--|
|------------------------------------------------------------------|
|------------------------------------------------------------------|
|------------------------------------------------------------------|
*harmonica na segunda vez

Riff 1
   repete 4x

  G      C      E   C 
|------------|----------|
|------------|----------|
|------*-*-*-|------5---|
|-5-5--5-5-5-|--2---5---|
|-5-5--------|--2---3---|
|-3-3--------|--0-------|

( riff 1 ) 
um dia to louco pessoas erradas as horas passavam
as coisas sempre aconteciam de um geito inevitavel

( G F C F G D F C )
me parece que um tempo atraiz a verdade 
sensaçoes de um mundo 
triste e real

( G D F C ) 
mentiras novas historias de velhas pessoas que querem te derrubar

( E C G bend em F# ) 
ainda somos os mesmos ooo

Repete riff 1

( G D F C )
novos amigos falsas promessas vozes que nao tem mais valor

( E C G bend em F# )
ainda somos os mesmos ooo


Enviada por Sem inscrição
Nº de acordes: 6