CPM 22

Hash Pipe

CPM 22

180 exibições
(Weezer cover)

Versão 1
-======-

Bass Slide then
intro/verse
           pm......
	e-|----------|
	B-|----------|
	G-|----------|
	D-|-2-0-4-5--|(x a lot of times)
	A-|-0-0-2-3--|
	E-|------(3)-|only play this note when rivers says uh

pre chorus
ooooh         come on and kick me
e-|----------|----------|------------------|-------------
B-|----------|----------|------------------|-------------
G-|--7-7--7--|7-7-------|------------------|-------------
D-|--7-7--7--|7-7--(x1)-|---2-0-4-5--(X4)--|-------------
A-|--5-5--5--|5-5-------|---0-0-2-3--------|-------------
E-|--5-5--5--|5-5-------|------------------|-------------

chorus
        ooooh         come on and kick me
e-|------------------
B-|------------------
G-|--7-10--9--7--5--4
D-|--7-10--9--7--5--4
A-|--5--8--7--5--3--2
E-|--5--8--7--5--3--2

(added thingy)
after 2nd chorus
do this

e-|----------|-
B-|----------|-
G-|--16------|-
D-|---x------|-
A-|--14------|-
E-|----------|-

solo

e-|-8-7-5-3------|-12--10--8--7--|-15-14-12-10---|-------------
B-|-8-7-5-3------|-12--10--8--7--|-15-14-12-10---|-------------
G-|--------------|---------------|---------------|-------------
D-|--------------|---------------|---------------|-------------
A-|--------------|---------------|---------------|-------------
E-|--------------|---------------|---------------|-------------


e-|-17-15-17-15------|----------|------------------|-------------
B-|-17-15-17-15------|----------|------------------|-------------
G-|-------------------------------------------------------------
D-|-----------------------------------------------------------
A-|-----------------------------------------------------------
E-|-----------------------------------------------------------

outro

   pm......
	e-|----------|
	B-|----------|
	G-|----------|
	D-|-2-0-4-5--|-5\
	A-|-0-0-2-3--|-3\
	E-|----------|-3\
after a few times slowly release muting and speed up

song structure

intro/verse
pre chorus
chorus
verse
pre chorus
chorus(with added bit)
verse (without singing)
solo
pre chorus
chorus(with added thingy)
outro

this file is all my own work
burgess....




Versão 2
-======-

Intro/Verso 
e|----------| 
B|----------| 
G|----------| 
D|----------| 
A|-0-0-2-3--| 
E|-2-2-4-5--| 
.....pm.....

Refrao |*=repete 8 vezes cada power acorde| 
e|-----------------------------------------------------| 
B|-----------------------------------------------------| 
G|-----------------------------------------------------| 
D|777777777777777----------7777777777777777-10*-9*-7*-5*-4*-| 
A|555555555555555-7-7-9-10**-5555555555555555—8*-7*-5*-3*-2*-| 
E|----------------5-5-7--8-----------------------------| 
                  (4 vezes essa seqüência)**

Bridge 
e|------------------| 
B|------------------| 
G|------------------| 
D|------------------| 
A|-5555555555555555-| 
E|-3333333333333333-| 

Solo (Use um efeito Wah pra ficar Show) 
e|-888-777-555-333-121212-101010-888-777-151515-141414-121212-101010-191919-171717-191919-171717| 
B|----------------------------------------------------------------------------------------------| 
G|----------------------------------------------------------------------------------------------| 
D|----------------------------------------------------------------------------------------------| 
A|----------------------------------------------------------------------------------------------| 
E|----------------------------------------------------------------------------------------------| 

Bridge 

Ordem
Intro/Verso
Refrão 
Intro/Verso
Refrão 
Bridge
Intro/Verso
Solo
Refrão 
Intro/Verso


Enviada por Sem inscrição
Nº de acordes: 1