CPM 22

Felicidade Instantânea

CPM 22

434 exibições
   D              C               
   As palavras que ainda n foram ditas
   B                  G
   Podem esclarecer suas duvidas
   D          C                  B
   Você passou muito rápido por mim
              G
   E já eram 4:20

   B        C    D       B    C        D 
   Não perco a esperança de ter mais uma chance
   B                  C      D
   Quero estar bem perto de vc
   B               C         D
   Quero e faço tudo pra te ter
   C                    B 
   Mas só penso em esperar, talvez
   C                    D      E      
   A felicidade instantânea volte com vc
   C                    B 
   Mas só penso em esperar, talvez
   C                    D      E      
   A felicidade instantânea volte com vc

   (C-B) 2x
  e|---------------------------------------------| 
  B|---------------------------------------------| 
  G|---9--9--9--9--9--9--9--9--9--9--9--9--9-----|   
  D|---------------------------------------------| 
  A|---7--7--7--7--7--7--7--7--7--7--7--7--7-----| 
  D|---------------------------------------------| 

  D  C              B                        C
  Ola, sou eu que faço as canções pra você chorar
   D     C        B                     C
   De amor no verão as pessoas enlouquecem
  
   Não posso ficar assim sem vc

   B        C    D       B    C        D 
   Não perco a esperança de ter mais uma chance
   B                  C      D
   Quero estar bem perto de vc
   B               C         D
   Quero e faço tudo pra te ter
   C                    B 
   Mas só penso em esperar, talvez
   C                    D      E      
   A felicidade instantânea volte com vc

   C                    B 
   Mas só penso em esperar, talvez
   C                    D      E      
   A felicidade instantânea volte com vc

  (C-B) 2x
  e|---------------------------------------------| 
  B|---------------------------------------------| 
  G|---9--9--9--9--9--9--9--9--9--9--9--9--9-----|   
  D|---------------------------------------------| 
  A|---7--7--7--7--7--7--7--7--7--7--7--7--7-----| 
  D|---------------------------------------------| 

   volte com você
                D  E  C
   volte com você


Enviada por Sem inscrição
Nº de acordes: 5