CPM 22

Argumento (Versão 2)

CPM 22

246 exibições
e|-4---4---2---2---5---5---2---2|
b|5---5---5---5---5---5---5---5-|2vz  INTRO
 
e|--------------------------------|
b|--------------------------------|
g|---4----------------------------|
d|4/6--6--------------------------|RIFF1
a|---------2-2----4-4----6-6------|
E|---------0-0----2-2----4-4------|

g|---4----------------------------|
d|4/6--6---6-6----4-4-------------|RIFF2
a|---------4-4----2-2----4-4------|
E|-----------------------2-2------|
Base:   E F#   Ab A
    RIFF3 B E Ab F#
  MUITO DISTANTE PARA PODER ENTENDER LONGE DEMAIS

A RAIVA DE VER E NAO TER O QUE FAZER PRA MELHORAR
  
ENQUANTO O TEMPO PASSA VOCE FICOU PRA TRAS

CEDO OU TARDE ALGO AQUI TEM QUE MUDAR

MELHOR AGORA DO QUE DEIXAR PRA DEPOIS
   
 |POR UM MOMENTO UM ARGUMENTO FAÇA COM QUE VOCE 
R|
E|PROSSIGA MAIS 
F|
R|NAO JOGUE AO VENTO , UM SENTIMENTO VONTADE DE TER 
A|
O|NO QUE ACREDITAR 

ACREDITAR

TENTE UM DIA SE ORGULHAR DE OLHAR PRA TRAS NAO 

VOLTA MAIS

QUEM DISSE QUE NAO ADIANTAVA MAIS SONHAR NUNCA E

DEMAIS

SEI QUE NEM SEMPRE E FACIL NAO ADIANTA SE ODIAR 

TENHO PALAVRAS QUE IRAO DE CONFORTAR NAO HA MAIS 

TEMPO PRA ESPERAR

REFRAO]


INTRO RIFF1 RIFF2 BASE RIFF3] 2VZ


Enviada por Sem inscrição
Nº de acordes: 8