CPM 22

Antes Que Seja Tarde (Versão 2)

CPM 22

206 exibições
Tom: F#

Introdução
e|---------------------------------------------------------|
B|---------------------------------------------------------|
G|---------------------------------------------------------|
D|-----4---4---4-----4---4---4-----4---4---4----4---4----4-|
A|-4-4---4---4---2-2---2---2-----------------2-2---2---2---|
E|-----------------------------4-4---4---4-----------------|

Verso
E|---------------------------------|  E|--------------------------------|
B|-7-7-7-7-------------------------|  B|--------------------------------|     
G|-6-6-6-6-4-4-4-4---------4-4-4-4-|  G|---------4-4-4-4---------4-4-4-4|     
D|-4-4-4-4-4-4-4-4-6-6-6-6-4-4-4-4-|  D|-4-4-4-4-4-4-4-4-6-6-6-6-4-4-4-4| 
A|---------2-2-2-2-6-6-6-6-2-2-2-2-|  A|-4-4-4-4-2-2-2-2-6-6-6-6-2-2-2-2| 
E|-----------------4-4-4-4---------|  E|-2-2-2-2---------4-4-4-4--------|
  Guitarra 1                            Guitarra 2

Pré-Refrão
E|---------|  E|-----------|
B|---------|  B|-----------|
G|-6-6-6-6-|  G|-6-8-10-11-|
D|-6-6-6-6-|  D|-6-8-10-11-|
A|-4-4-4-4-|  A|-4-6-8--9--|
E|---------|  E|-----------|
  Guitarra 1    Guitarra 2 (parte do baixo)

Refrão
G|-----4-4-----4-| B|-7-7-12-12-9-9-7-7-7-|
D|-4-4-4-4-6-6-4-| G|-6-6-11-11-8-8-6-6-6-|
A|-4-4-2-2-6-6-2-| D|-4-4-9--9--6-6-4-3-4-|
E|-2-2-----4-4---| A|---------------------|
  Guitarra 1         Guitarra 2 (só no final da música)

Riff (depois do primeiro refrao)
D|-----4---4---4-----4---4---4----4---4---4-4-4-4-|
A|-4-4---4---4---2-2---2---2--------------2-2-2-2-|
E|----------------------------4-4---4---4---------|

Riff
E|-------------------|        E|-------------|
B|-7-7-7-7-7---------|        B|-7-7-7-7-7-7-|
G|-6-6-6-6-6-4-4-6-6-| Repete G|-6-6-6-6-6-6-|
D|-4-4-3-3-4-4-4-6-6-| varias D|-4-4-4-4-4-3-|
A|-----------2-2-4-4-| vezes  A|-------------|
E|-------------------|        E|-------------|

Final
E:-------------------------------------------------------2-:
B:-------------------------------------------------------2-:
G:-------------------------------------------------------3-:
D:-----4---4---4-----4---4---4-----4---4-------4---4---4-4-:
A:-4-4---4---4---2-2---2---2---------------2-2---2---2---2-:
E:-----------------------------4-4---4---4-----------------:


Enviada por Sem inscrição
Nº de acordes: 1