CPM 22

A Minha Radio é Rock

CPM 22

261 exibições
Tom: G
Baixo: ( varias vezes )
G|----------------------------|
D|----------------------------|
A|--------2-3-3-5-3-------5---|
E|--3-3-5-----------3-3--5----|
riff1 
e|--10-7-10-7-10-7-10-7-10-7--7-7-10/12--10—7>10------|
B|----------------------------------------------------|                     
G|----------------------------------------------------|
D|----------------------------------------------------|
A|----------------------------------------------------|
E|----------------------------------------------------|
   |------------------------------3 vezes-------------|
riff 2:
e|--10----7-------------------------------------------|
B|-----10---10--8--10--8—10/12--10--12--10--10-10--8--|                     
G|----------------------------------------------------|
D|----------------------------------------------------|
A|----------------------------------------------------|
E|----------------------------------------------------|
           ( G C A D )
Vem cá, diz com está
Faz tempo que agente não se vê,por isso resolvi ligar
         ( G C A D )
Vem cá, diz que vai dar
Pra gente sair juntos, só me diz a hora, que eu vou te buscar
C            D             G 
Te esperei por todos estes anos
      E                     C      D
E agora não vou mais me enganar
 ( G C A D )
Desde que eu te vi não paro de pensar
Se não for você não vale nem tentar
( G C A D )
Desde que eu te vi não paro de pensar
Se não for você não vale nem tentar
RIFF1: (1X) RIFF2: (1X)
         ( G C A D )
Então ta, vou te buscar
Agora a distancia não me importa mais, sei que vai rolar
         ( G C A D )
Então ta, vou te buscar
Agora que nos encontramos, nunca mais vou te largar 

C            D              G 
Te esperei por todos estes anos
      E                     C      D
E agora não vou mais me enganar
 ( G C A D )
Desde que eu te vi não paro de pensar
Se não for você não vale nem tentar
( G C A D )
Desde que eu te vi não paro de pensar
Se não for você não vale nem tentar


Enviada por Sem inscrição
Nº de acordes: 7