CPM 22

A Cura

CPM 22

677 exibições
(G# F C# G# F D#) 2x

Solo: 2X                                                                    
e|-11-11-11-11-11-11-11-11-11-11--8-8-8-8-9-9-9-9-8-8-8-8---------------------|
B|--9--9--9--9--9--9--9--9--9--9--9-9-9-9-9-9-9-9-9-9-9-9----9-11-9-11---9----|
G|---------------------------------------------------------8-----------8------|   2x
D|----------------------------------------------------------------------------| 
A|----------------------------------------------------------------------------| 
e|----------------------------------------------------------------------------|
   G#                     F      D#
   Não quero voltar no passado mas
   G#    F        C# 
   Pensei em te ligar
   G#    F    C#    
   mas não sei se vai ser
   G#   D#    C#
   tão bom assim
   
   Bb               C#
   Mas se eu estiver 
            G#      D#
   em depressão profunda
   Bb                   C#
   sei que você não presta
             G#    D#
   mas procurei a cura 

   REFRÃO
   
   C#                      G#
   Dentro de você eu procurei a cura
   C#                      G#
   você sempre pareceu ser tão segura
   C#                      G#
   Dentro de você eu procurei a cura
   D#
   para os meus problemas pessoais

  (G# F C# G# F D#) 2x

e|-11-11-11-11-11-11-11-11-11-11--8-8-8-8-9-9-9-9-8-8-8-8---------------------|
B|--9--9--9--9--9--9--9--9--9--9--9-9-9-9-9-9-9-9-9-9-9-9----9-11-9-11---9----|
G|---------------------------------------------------------8-----------8------|   2x
D|----------------------------------------------------------------------------| 
A|----------------------------------------------------------------------------| 
e|----------------------------------------------------------------------------|


   G#      F                  D#
   Terça-feira eu deixei um recado na...
   G#    F         C#  
   sua secretaria eletrônica
   G#              F              C# 
   eu disse olha, é bom a gente se falar
   G#           D#                  C#
   agora que todo esse tempo ja passou

   Bb               C#
   Mas se eu estiver 
            G#      D#
   em depressão profunda
   Bb                    C#
   sei que você não presta
             G#    D#
   mas procurei a cura 

   
   ==== REFRÃO ====
   
   
   C#                      G#
   Dentro de você eu procurei a cura
   C#                      G#
   você sempre pareceu ser tão segura
   C#                      G#
   Dentro de você eu procurei a cura
   D#
   para os meus problemas pessoais

  Final: G# Bb C# Bb C# Bb C# G#   (2x)
E|---------------------------------------------------------------------------
B|---------------------------------------------------------------------------
G|--8-x-x-8-x-x-8--6--8-x-x-8-x-x-8--8--8-x-x-8-x-x-8-----8-x-x-8-x-x-8/10-8-
D|--8-x-x-8-x-x-8--6--8-x-x-8-x-x-8--8--8-x-x-8-x-x-8--6--8-x-x-8-x-x-8/10-8-
A|--6-x-x-6-x-x-6--4--6-x-x-6-x-x-6--6--6-x-x-6-x-x-6--6--6-x-x-6-x-x-6/8--6-
E|-----------------------------------------------------4---------------------

 
 ---------------------------------------------------------------------------|
 ---------------------------------------------------------------------------|
 --8-x-x-8-x-x-8--6--8-x-x-8-x-x-8-----8-x-x-8-x-x-8--6---8-x-x-8-x-x-8-----|
 --8-x-x-8-x-x-8--6--8-x-x-8-x-x-8--8--8-x-x-8-x-x-8--6---8-x-x-8-x-x-8--6--|
 --6-x-x-6-x-x-6--4--6-x-x-6-x-x-6--8--6-x-x-6-x-x-6--4---6-x-x-6-x-x-6--6--|
 -----------------------------------6------------------------------------4--|


Enviada por Sem inscrição
Nº de acordes: 5