CPM 22

A Alguns Quilômetros De Lugar Nenhum (Versão 2)

CPM 22

266 exibições
Tom: D
Intro: (D A F# G)

Introducao, Verso, Final
e|---------------------------------------|
B|---------------------------------------|
G|-7-7-7-7-7-----------------------------|
D|-7-7-7-7-7-7-7-7-7-7-4-4-4-4-4-5-5-5-5-|
A|-5-5-5-5-5-7-7-7-7-7-4-4-4-4-4-5-5-5-5-|
E|-----------5-5-5-5-5-2-2-2-2-2-3-3-3-3-|
 |Guitarra 1
 |
e|--------------------------------------------------------|
B|--------------------------------------------------------|
G|-11-11-11-11-11-9-9-9-9-9-11-11-11-11-11-12-12-12-12-12-|
D|--------------------------------------------------------|
A|-9--9--9--9--9--7-7-7-7-7-9--9--9--9--9--10-10-10-10-10-|
E|--------------------------------------------------------|
  Guitarra 2

Refrão
E|-----------------------------------------|
B|-----------------------------------------|
G|-----------------------------------------|
D|-4-4-4-4-4-5-5-5-5-5-7-7-7-7-7-7-7-7-7-7-|
A|-4-4-4-4-4-5-5-5-5-5-7-7-7-7-7-7-7-7-7-7-|
E|-2-2-2-2-2-3-3-3-3-3-5-5-5-5-5-5-5-5-5-5-|
 |Guitarra 1
 |
E|----------------------------------------------|
B|----------------------------------------------|
G|-11-11-11-11-11-12-12-12-12-12-14-14-14-14-14-|
D|----------------------------------------------|
A|-9--9--9--9--9--10-10-10-10-10-12-12-12-12-12-|
E|----------------------------------------------|
  Guitarra 2

Riff 1
G|-----------------------|
D|-----7-5-4---7-5-4-5---|
A|-5-5-----------------5-|
E|-----------------------|

Riff 2
G|-7~-767------|
D|-7~-767-4~-5~| com volume baixo
A|-5~-545-4~-5~|
E|--------2~-3~|

Riff 3
G|-------------------------|
D|---7---------------------| depois do
A|-5---5---7-----4-----5---| verso com 
E|-------5---5-2---2-3---3-| PM


Enviada por Sem inscrição
Nº de acordes: 4