Sem imagem

Country Dance

Carulli

278 exibições
E||--------------|--------------|--------------| 
B||--0-----0-----|--1-----1-----|--0-----1--0--| 
G||--0-----0-----|--2-----2-----|--0-----------| 
D||-----0-----0--|-----0-----0--|-----0--------| 
A||--------------|--------------|--------------| 
E||--------------|--------------|--------------| 
 
 
                                                             
--------------|--------------|--------------|--------------| 
--------3-----|--0-----0-----|--1-----1-----|--0-----1-----| 
--2-----7-----|--0-----0-----|--2-----2-----|--0--------2--| 
--7--0-----0--|-----0-----0--|-----0-----0--|-----0--------| 
--------------|--------------|--------------|--------------| 
--------------|--------------|--------------|--------------| 
 
 
                                                          
-----------|--------------|--------------|--------------| 
-----------|--0-----0-----|--1-----1-----|--0-----1--0--| 
--0--------|--0-----0-----|--2-----2-----|--0-----------| 
-----------|-----0-----0--|-----0-----0--|-----0--------| 
-----------|--------------|--------------|--------------| 
--3--------|--------------|--------------|--------------| 
 
 
                                                             
--------------|--------------|--------------|--------------| 
--------3-----|--0-----0-----|--1-----1-----|--0-----1-----| 
--2-----7-----|--0-----0-----|--2-----2-----|--0--------2--| 
--7--0-----0--|-----0-----0--|-----0-----0--|-----0--------| 
--------------|--------------|--------------|--------------| 
--------------|--------------|--------------|--------------| 
 
 
                                                          
-----------|--2-----2-----|--3-----------|--------0-----| 
-----------|--1-----1-----|--0-----0-----|--1--------3--| 
--0--------|--------------|--------0-----|--2-----------| 
-----------|-----0-----0--|-----0-----0--|-----0--------| 
-----------|--------------|--------------|--------------| 
--3--------|--------------|--------------|--------------| 
 
 
                                                             
--------------|--2-----2-----|--3-----------|--------0-----| 
--0-----------|--1-----1-----|--0-----0-----|--1--------3--| 
--4-----0-----|--------------|--------0-----|--2-----------| 
-----0--5--0--|-----0-----0--|-----0-----0--|-----0--------| 
--------------|--------------|--------------|--------------| 
--------------|--------------|--------------|--------------| 
 
 
                                                          
-----------|--2-----2-----|--3-----------|--------0-----| 
--0--------|--1-----1-----|--0-----0-----|--1--------3--| 
-----------|--------------|--------0-----|--2-----------| 
-----------|-----0-----0--|-----0-----0--|-----0--------| 
-----------|--------------|--------------|--------------| 
--3--------|--------------|--------------|--------------| 
 
 
                                                             
--------------|--2-----2-----|--3-----------|--------0-----| 
--0-----------|--1-----1-----|--0-----0-----|--1--------3--| 
--4-----0-----|--------------|--------0-----|--2-----------| 
-----0--5--0--|-----0-----0--|-----0-----0--|-----0--------| 
--------------|--------------|--------------|--------------| 
--------------|--------------|--------------|--------------| 
 
 
                                                          
-----------|-----------0--|-----------0--|-----2-----2--| 
--0--------|--------0-----|--------0-----|-----0-----0--| 
-----------|-----0--------|-----0--------|--------------| 
-----------|--2-----------|--2-----------|--1-----1-----| 
-----------|--7-----------|--7-----------|--6-----6-----| 
--3--------|--------------|--------------|--------------| 
 
 
                                                             
-----3-----0--|--------------|--------------|-----2-----2--| 
-----0-----0--|-----0-----0--|-----0-----0--|-----0-----0--| 
--------------|--2-----2-----|--0-----------|--------------| 
--2-----2-----|--7-----7-----|--5-----2-----|--1-----1-----| 
--7-----7-----|--------------|--------7-----|--6-----6-----| 
--------------|--------------|--------------|--------------| 
 
 
                                                          
--0--------|-----------0--|-----------0--|-----2-----2--| 
-----------|--------0-----|--------0-----|-----0-----0--| 
-----------|-----0--------|-----0--------|--------------| 
--2--------|--2-----------|--2-----------|--1-----1-----| 
-----------|--7-----------|--7-----------|--6-----6-----| 
-----------|--------------|--------------|--------------| 
 
 
                                                             
-----3-----0--|--------------|--------------|-----2-----2--| 
-----0-----0--|-----0-----0--|-----0-----0--|-----0-----0--| 
--------------|--2-----2-----|--0-----------|--------------| 
--2-----2-----|--7-----7-----|--5-----2-----|--1-----1-----| 
--7-----7-----|--------------|--------7-----|--6-----6-----| 
--------------|--------------|--------------|--------------| 
 
 
                                                          
--0--------|--------------|--------------|--------------| 
-----------|--0-----0-----|--1-----1-----|--0-----1--0--| 
-----------|--0-----0-----|--2-----2-----|--0-----------| 
--2--------|-----0-----0--|-----0-----0--|-----0--------| 
-----------|--------------|--------------|--------------| 
-----------|--------------|--------------|--------------| 
 
 
                                                             
--------------|--------------|--------------|--------------| 
--------3-----|--0-----0-----|--1-----1-----|--0-----1-----| 
--2-----7-----|--0-----0-----|--2-----2-----|--0--------2--| 
--7--0-----0--|-----0-----0--|-----0-----0--|-----0--------| 
--------------|--------------|--------------|--------------| 
--------------|--------------|--------------|--------------| 
 
 
                                                          
-----------|--2-----2-----|--3-----------|--------0-----| 
-----------|--1-----1-----|--0-----0-----|--1--------3--| 
--0--------|--------------|--------0-----|--2-----------| 
-----------|-----0-----0--|-----0-----0--|-----0--------| 
-----------|--------------|--------------|--------------| 
--3--------|--------------|--------------|--------------| 
 
 
                                                             
--------------|--2-----2-----|--3-----------|--------0-----| 
--0-----------|--1-----1-----|--0-----0-----|--1--------3--| 
--4-----0-----|--------------|--------0-----|--2-----------| 
-----0--5--0--|-----0-----0--|-----0-----0--|-----0--------| 
--------------|--------------|--------------|--------------| 
--------------|--------------|--------------|--------------| 
 
 
              
-----------|| 
--0--------|| 
-----------|| 
-----------|| 
-----------|| 
--3--------|| 



Enviada por Sem inscrição
Nº de acordes: 0