Tabbed By: Chris Gill (CG*)

this song was only ever recorded live but is amazing
check out * for the audio

Drop C#

Intro/Verse
D#|--------------------------------------------------|
A#|--------------------------------------------------|
F#|--------------------------------------------------| x4 
C#|--------------------------------------------------| x4 PMed
G#|--------5--------3--------5--------3--------------|
C#|--0--3-----0--5-----0--3-----0--5-----0--3--5--5--|

Chorus Pt 1
D#|---------------------------------------|
A#|---------------------------------------|
F#|---10--(10)7----9-10---(10)12----9-10--| 
C#|---8----(8)5----7--8----(8)10----7--8--| 
G#|---8----(8)5----7--8----(8)10----7--8--|
C#|---8----(8)5----7--8----(8)10----7--8--|

Chorus Pt 2
D#|----------------------------------------------|
A#|----------------------------------------------|
F#|(10)7---9---12---9-10---(10)7---9---12---9-10-| 
C#|-(8)5---7---10---7--8----(8)5---7---10---7--8-| 
G#|-(8)5---7---10---7--8----(8)5---7---10---7--8-|
C#|-(8)5---7---10---7--8----(8)5---7---10---7--8-|


Verse
D#|--------------------------------------------------|
A#|--------------------------------------------------|
F#|--------------------------------------------------| x2
C#|--------------------------------------------------| x4 PMed
G#|--------5--------3--------5--------3--------------|
C#|--0--3-----0--5-----0--3-----0--5-----0--3--5--5--|

Chorus Pt 1
D#|---------------------------------------|
A#|---------------------------------------|
F#|---10--(10)7----9-10---(10)12----9-10--| 
C#|---8----(8)5----7--8----(8)10----7--8--| 
G#|---8----(8)5----7--8----(8)10----7--8--|
C#|---8----(8)5----7--8----(8)10----7--8--|

Chorus Pt 2
D#|----------------------------------------------|
A#|----------------------------------------------|
F#|(10)7---9---12---9-10---(10)7---9---12---9-10-| 
C#|-(8)5---7---10---7--8----(8)5---7---10---7--8-| 
G#|-(8)5---7---10---7--8----(8)5---7---10---7--8-|
C#|-(8)5---7---10---7--8----(8)5---7---10---7--8-|

Bridge (same as "So Cold" bridge)
D#|--------------------------------------------------|
A#|--------------------------------------------------|
F#|--------------------------------------------------| 
C#|--------7----------7--------7--------5------------| x4
G#|--0-3h5-5--0-3-5-6-5--0-3h5-5--6-5-6-3-6-5-6------|
C#|--0-3h5----0-3-5-6----0-3h5----6-5-6---6-5-6------|

Chorus Pt 1
D#|---------------------------------------|
A#|---------------------------------------|
F#|---10--(10)7----9-10---(10)12----9-10--| 
C#|---8----(8)5----7--8----(8)10----7--8--| 
G#|---8----(8)5----7--8----(8)10----7--8--|
C#|---8----(8)5----7--8----(8)10----7--8--|

Chorus Pt 2
D#|----------------------------------------------|
A#|----------------------------------------------|
F#|(10)7---9---12---9-10---(10)7---9---12---9-10-| 
C#|-(8)5---7---10---7--8----(8)5---7---10---7--8-| 
G#|-(8)5---7---10---7--8----(8)5---7---10---7--8-|
C#|-(8)5---7---10---7--8----(8)5---7---10---7--8-|

Verse
D#|--------------------------------------------------|
A#|--------------------------------------------------|
F#|--------------------------------------------------| x4
C#|--------------------------------------------------|
G#|--------5--------3--------5--------3--------------|
C#|--0--3-----0--5-----0--3-----0--5-----0--3--5--5--|


Enviada por Sem inscrição
Nº de acordes: 1