Bon Jovi
Tom: E
Intro: E  A  C#m B A

(C#m pra B é meia batida)

(intro solo)
E |----------------------|
B |-7--9--10--9--7--5-5--|
G |----------------------|(2x)
D |----------------------|
A |----------------------|
E |----------------------|

C#m
this romeo is bleeding
B
but you can't see his blood
A
it's nothing but some feelings
          G#m             B
that this old dog kicked up

C#m
it's been raining since you left me
          B
now I'm drowning in the flood
A
you see I've always been a fighter
       G#m              A B C#m
but without you I give up

C#m
now I can't sing a love song
          B
like the way it's meant to be
A
well, I guess I'm not that good anymore
     B                 A B
but baby, that's just me

E             B
yeah, I will love you          (intro solo 1x)
A        C#m   B
baby   Always
E                     B             A
and I'll be there forever and a day
C#m   B
Always

E
I'll be there till the stars don't shine
             B
till the heavens burst and
the words don't rhyme
            A
and I know when I die, you'll be on my mind
          B
and I'll love you
A B C#m
Always (intro solo 1x)

C#m
now you're pictures that you left behind
B
are just memories of a different life
A
some that made us laugh, some that made us cry
                G#m               B
one that made you have to say goodbye
C#m
what I'd give to run my fingers through your hair
              B
to touch your lips, to hold you near
A
when you say your prayers try to understand
          G#                     A B C#m
I've made mistakes, I'm just a man

C#m
when he holds you close, when he pulls you near
                 B
when he says the words you've been needing to hear
A
I'll wish I was him `cause those words are mine
               B                 A B
to say to you till the end of time

E             B
yeah, I will love you (intro solo 1x)
A       C#m   B
baby  Always
E                    B              A
and I'll be there forever (intro solo 1x) and a day
C#m   B
Always

D                  G
if you told me to cry for you
A
I could
D                   G         A
if you told me to die for you
    Bm
I would
         A           G
take a look at my face
           F#m               A
there's no price I won't pay

to say these words to you

(solo base) ( E B F#m C#m B ) ( E B A B A B A )

|-----------|---------------------------|--------------------------|
|-----------|---------------------------|--------------------------|
|-----------|---------------------------|--------------------------|
|------9h11-|----------9h11-------------|---------------------2-4r-|
|--11-------|--11-----------11~---9r--7-|--9--------------2-4------|
|-----------|---------------------------|----7-7~-------4----------|

|--------------------------------|---------------------------12-|
|--------------------------------|------------------------12b---|
|--------------------------------|------------------------------|
|---2~------2-4r--2-----2-4-4r-2-|--------2-4r-4-2-4~-----------|
|-----4-2-4---------4-2----------|--4~-4~-----------------------|
|--------------------------------|------------------------------|

|--12/9-9/7-7/12-12/9-9/7-7-------------|---------------------------12----|
|---------------------------------------|----------12b-----------14-12-14-|
|-----------------------------11r--11-9-|--11~----------------13----------|
|---------------------------0-----------|-------------------9-------------|
|---------------------------------------|----------------11---------------|
|---------------------------------------|---------------------------------|

|--12-------12-------12-12-12-12----------12-14r14-12-|--14~-------16b---14r---|
|--14-12----14-12----12-14-14-12----12-14-------------|------------------------|
|--------13-------13-------------13-------------------|------------------------|
|-----------------------------------------------------|------------------------|
|-----------------------------------------------------|------------------------|
|-----------------------------------------------------|------------------------|

|--12------------------|
|-----14---------------|
|----------------------|
|----------------------|
|----------------------|
|----------------------|

A
well, there ain't no luck

in these loaded dice
      B
but baby if you give me just one more try
         C#m
we can pack up our old dreams

and our old lives
        A         C#m                    B
we'll find a place where the sun still shines

E             B
yeah, I will love you (Solo inicial)1X
A       C#m   B
baby  Always

E                    B              A
and I'll be there forever (intro solo 1x) and a day

E |-------------|
B |-8-8--7-6----|
G |-------------|
D |-------------|
A |-------------|
E |-------------|

C#m   B
Always
E
I'll be there till the stars don't shine
             B
till the heavens burst and

the words don't rhyme
            A
and I know when I die, you'll be on my mind
          B
and I'll love you
A B C#m
Always

|--9b---24h21----24h21----24h21----24h21----|-----------------------------7-12-19-|
|-------------22-------22-------22-------22-|---------------------------9---------|
|-------------------------------------------|-------------------------9-----------|
|-------------------------------------------|--------18-------------9-------------|
|-------------------------------------------|--19r--------19/----11---------------|
|-------------------------------------------|-----------------12------------------|

|--16r--------16--17h17b---|--17h17----17----16-------------------------------|
|--------------------------|--------17----17----17----------------------------|
|--------------------------|-----------------------18/19-18----16h14----14h13-|
|--------------------------|--------------------------------18-------14-------|
|--------------------------|--------------------------------------------------|
|--------------------------|--------------------------------------------------|

|------------------------------------------|----------------------4-7-12-19-|
|------------------------------------------|-------9---x--------5-----------|
|------------------------------------------|--9~-------x------4-------------|
|--14~---11----11----11----------11----11--|----------------6---------------|
|-----------12----12----12-12-12----12-----|--------------7-----------------|
|------------------------------------------|--------------------------------|

|--16b--------16--17-17----|--17-17----17----16-------------------------------|
|--------------------------|--------17----17----17----------------------------|
|--------------------------|-----------------------18h19h18----16h14----14h13-|
|--------------------------|--------------------------------18-------14-------|
|--------------------------|--------------------------------------------------|
|--------------------------|--------------------------------------------------|

|------------------------------------------|
|------------------------------------------|
|------------------------------------------|
|--14----11----11----11----------11----11--|
|-----------12----12----12h12h12----12-----|
|------------------------------------------|
  • Enviada por: Sem inscrição
  • Exibições: 9.087
  • Correção por equipepegacifras
  • Nº de acordes: 10