Blur

Song 2

Blur

1.765 exibições
Tom: F
[Drum intro]
[Guitar intro]	2x		(Clean)
    F    F          D#  D#  D#        G#  G#  A#  C    C  C
e:--------------------------------------------------------------------|
B:--------------------------------------------------------------------|
G:--10---10---X-X---8---8---8---X-X---13--13--15--17---17-17----------|
D:--10---10---X-X---8---8---8---X-X---13--13--15--17---17-17----------|
A:--8----8----X-X---6---6---6---X-X---11--11--13--15---15-15----------|
E:--------------------------------------------------------------------|
[Heavy]		4x
Whoo Hooo!!				(3x)
[Lead guitar]
E---16--16--16--16--16--16--16--16--16--16--||
B-------------------------------------------||
G---13--13--13--13--13--13--13--13--13--13--||
D-------------------------------------------||
A-------------------------------------------||
E-------------------------------------------||


[VERSE1]
      F			D#	G#  A#  C 
I got my head checked
	F		D#	G#  A#  C
By a jumbo jet
       F		D#	G#  A#  C
It wasn't easy
	  F		D#	G#  A#  C
But nothing is________,     no
[CHORUS]
F	       D#     G#   A#    C
Whoo Hooo!! Well I feel heavy metal
F              D#     G#           A#  C
Whoo Hooo!!	And I'm pins and I'm needles
F              D#     G#      A#   C
Whoo Hooo!! Well I lie and I'm easy
F                       G#               C#
All of the time and I'm never sure why I need you
Pleased to meet ya
[Riff1]	2x
  F G#  F G#  F# G#   A# C
A-3-/6\3-/6-/3--6-6-8-10-10-10-
E-1-/4\1-/4-/1--4-4-6-8--8--8--
[VERSE2]
       F		D#	G#  A#  C        
I got my head done
       F		D#	G#  A#  C        
When I was young
          F		D#	G#  A#  C        
It's not my problem
         F		D#	G#  A#  C        
It's not my pro__blem___
[CHORUS]
F              D#     G#   A#    C
Whoo Hooo!! Well I feel heavy metal
F              D#	G#       A#  C
Whoo Hooo!!	And I'm pins and I'm needles
F              D#     G#      A#  C
Whoo Hooo!! Well I lie and I'm easy
F                       G#               C#
All of the time and I'm never sure why I need you
Pleased to meet ya
[OUTRO]
[Riff1]	2x
  F G#  F G#  F# G#   A# C
A-3-/6\3-/6-/3--6-6-8-10-10-10-
E-1-/4\1-/4-/1--4-4-6-8--8--8--
Yeah,  yeah
Yeah,  yeah
[Riff2]	2x
  F G#  F G#  C   G#  A# C
A-3-/6\3-/6-/10-6-6-8-10-10-10-
E-1-/4\1-/4-/8--4-4-6-8--8--8--
Yeah,  yeah
Oh,    yeah		F
Blur - Song2 [Bass Tab]
    F    F          D#  D#  D#        G#  G#  A#  C    C  C
G:--------------------------------------------------------------------|
D:--------------------------------------------------------------------|
A:--8----8----X-X---6---6---6---X-X-----------------------------------|
E:------------------------------------4---4---6---8----8--8-----------|
[2x guitar intro]
[4x Bass]
Whoo Hooo!!				(3x)
[VERSE1]
I got my head checked
By a jumbo jet
It wasn't easy
But nothing is________,     no
[CHORUS]
F              D#     G#   A#    C
Whoo Hooo!! Well I feel heavy metal
F              D#    G#        A#  C
Whoo Hooo!!	And I'm pins and I'm needles
F              D#     G#      A#  C
Whoo Hooo!! Well I lie and I'm easy
F                       G#               C#
All of the time and I'm never sure why I need you
Pleased to meet ya
[Riff1]	2x
 F G#  F G#  F# G#   A# C
E-1-/4\1-/4-/1--4-4-6-8--8--8--
[VERSE2]
I got my head done
When I was young
It's not my problem
It's not my pro__blem___
[CHORUS]
F              D#     G#   A#    C
Whoo Hooo!! Well I feel heavy metal
F              D#     G#       A#  C
Whoo Hooo!!	And I'm pins and I'm needles
F              D#     G#      A#  C
Whoo Hooo!! Well I lie and I'm easy
F                       G#               C#
All of the time and I'm never sure why I need you
Pleased to meet ya
[Riff1]	2x
  F G#  F G#  F# G#   A# C
E-1-/4\1-/4-/1--4-4-6-8--8--8--  Yeah,  yeah	Yeah,  yeah
[Riff2]	2x
  F G#  F G#  C   G#  A# C
E-1-/4\1-/4-/8--4-4-6-8--8--8--	 Yeah,  yeah	Oh, yeah   F
 ____                _    _        _         


Enviada por Sem inscrição
Nº de acordes: 10