Banda Calypso
Versão do 2° DVD (ao vivo)

Tom: G

Intro: G C Am D (2x)

Solo inicial =

E|---9/10--10-10/13-10-3-----99---77--533--0-3-5-------------- 
B|--------------------------------------4--2--------------------
G|--------------------------1010--7------------5-------------- (2X)
D|--11/12--12-12/14-12-5-----------6--444--2-4----------------
A|------------------------------------------------------------
E|------------------------------------------------------------

(Estrofe 1)
G      D 
 Já é tarde,
         Em                         C/G
Mais uma noite que você me deixa aqui a te esperar
 G            D         C/G
Assim, sem saber, a que horas vai chegar    ( Riff 1 )
G                 D
Ligo a TV pra tentar me distrair
 Em                      C
Mas você não chega e eu volto a insistir
G             D             C/G     
 No seu celular, você não atende, não está a fim   ( Riff 2 )

(Estrofe 2)
Am                              C
  Já passou da hora de você chegar
                                     D
Ligo pra teus amigos, tento te encontrar
                                  
Mas eles me dizem que não vão te ver   ( Riff 3 )
Am                                      Em
  Preciso de um calmante ou vou enlouquecer
                             A
Se você chegasse iria adormecer  ( Riff 4 )

A noite já se foi, amanheceu  
   
Cadê você?  ( Riff 5 )

(Refrão)
       G         C
O tic tac do relógio
Am               D
Parece que já parou
         G            C
Ele não soube te esperar
Am                D
Mas ainda estou aqui
            G             C
Volta para casa, vem me amar
Am                   D
Que eu espero por você
F                   C
Só vou conseguir dormir
            F          C            D     
Quando você chegar e fizer amor comigo...


E|---9/10--10-10/13-10-3-----99---77--533--0-3-5-------------- 
B|--------------------------------------4--2------------------
G|--------------------------1010--7------------5-------------- 
D|--11/12--12-12/14-12-5-----------6--444--2-4----------------
A|------------------------------------------------------------
E|------------------------------------------------------------

E|---9/10--10-10/13-10-3-----99---77--533--0-0-0--5-5--------- 
B|--------------------------------------4--2-0-3--5-5---------
G|--------------------------1010--7----------0-4--6-6--------- (*)= abafar.
D|--11/12--12-12/14-12-5-----------6--444--2-0-0--0*0---------
A|------------------------------------------------------------
E|------------------------------------------------------------


Am                              C
  Já passou da hora de você chegar
                                     D
Ligo pra teus amigos, tento te encontrar
                                  C
Mas eles me dizem que não vão te ver   ( Riff 6 )
Am                                      Em
  Preciso de um calmante ou vou enlouquecer
                             A
Se você chegasse iria adormecer  ( Riff 4 )

A noite já se foi, amanheceu
   C
Cadê você?  ( Riff 5 )

(Refrão)
       G         C
O tic tac do relógio
Am               D
Parece que já parou
         G            C
Ele não soube te esperar
Am                D
Mas ainda estou aqui
            G             C
Volta para casa, vem me amar
Am                   D
Que eu espero por você
F                   C
Só vou conseguir dormir
            Am          C            D     
Quando você chegar e fizer amor comigo...


Parte final

E|---9/10--10-10/13-10-3-------------9/10--10-10/13-10-3------3-5-6-7--- 
B|----------------------------------------------------------------------
G|----------------------------------------------------------------------
D|--11/12--12-12/14-12-5------------11/12--12-12/14-12-5------5-7-8-9---
A|----------------------------------------------------------------------
E|----------------------------------------------------------------------




Riff 1

E|-------------------------------------------
B|-------------------------------------------
G|--0---1-1---1/3-1-0------------------------
D|----0-----2--------------------------------
A|-------------------------------------------
E|-------------------------------------------


Riff 2
E|--779-8---------------------------
B|--779--10-8-------------------------
G|------------8/9----------------------
D|-------------------------------------------
A|-------------------------------------------
E|-------------------------------------------

Riff 3
E|--9/12-12-12--10-10-10-8--888--6-44-3------
B|--9/12-12-12--11-11-11-9--999--7-55-4------
G|--9/12-12-12--10-10-10-8--888--6-44-3------
D|-------------------------------------------
A|-------------------------------------------
E|-------------------------------------------


Riff 4
E|-------------------------------------------
B|-------------------------------------------
G|----------1-2----------------1-2-----------
D|------1-2----------------1-2---------------
A|--1-2----------------1-2-------------------
E|-----------------0h2-----------------------


Riff 5
E|--8/10-10-88-77-5-3------------------------
B|--8/10-10-88-77-5-3------------------------
G|--9/11-11-99-88-6-4------------------------
D|-------------------------------------------
A|-------------------------------------------
E|-------------------------------------------


Riff 6
E|-------------------------------------------
B|------2-4-3/5------------------------------
G|--2-5--------------------------------------
D|-------------------------------------------
A|-------------------------------------------
E|-------------------------------------------
  • Enviada por: Sem inscrição
  • Exibições: 14.431
  • Nº de acordes: 8