Ana Castela

Nosso Quadro

Ana Castela

Compartilhar:

Tom: D
Intro: (D7M  F#m  E) 2x

E|-9--9----9-12--------9--9-----------------|
B|--------------10-12-----------------------|
G|------------------------------------------| (2x)
D|------------------------------------------|
A|------------------------------------------|
E|------------------------------------------|

Verso 1:
         D7M
Todo mundo tem um amor
                             A 
Que quando deita e olha pro teto
          C#m7
Vem a pergunta

Será que se fosse hoje
              F#m 
A gente dava certo?

       D7M                        
Um episódio que nunca vai ser lançado
               A 
Um amor incompleto
        C#m7                  
Uma história que parou pela metade
              F#m 
Imagina o resto

Pré-Refrão:
               D7M  
Ê saudade que toma
                             A
Que toma, que toma conta de mim
               F#m 
E não me dá remorço

Nem raiva, nem ódio
            E
Dá pena do fim

Refrão:
                D7M
Agora o nosso quadro
              A
Casando na igreja
                  C#m7 
Não vai ser pendurado
                      F#m
Só existe na minha cabeça
                    D7M
Nós dois tocando o gado
             A
A filha boiadeira
               C#m7 
Nossa vida no mato
                     F#m
Só existe na minha cabeça


Vai ser amor mesmo
                    D7M 
Não sendo a vida inteira
A
  Vai ser amor mesmo
                    C#m7  F#m
Não sendo a vida inteira

Solo: D7M  A  C#m7  F#m 

E|-9--9----9-12----------9--9----9-12-------|
B|---------------10-12----------------10-12-|
G|------------------------------------------|
D|------------------------------------------|
A|------------------------------------------|
E|------------------------------------------|

E|-9--9----9-12----------9--9---------------|
B|---------------10-12-----------10--10-----|
G|------------------------------------------|
D|------------------------------------------|
A|------------------------------------------|
E|------------------------------------------|

Verso 2:

                       D7M
Tem coisas que nem querendo a gente esquece
                 A
Final do ano de dois mil e dezessete
               C#m7 
Eu começando odonto e você na vet
              F#m
A sua camisa jeans na minha caminhonete

Pré-Refrão:
                   D7M
Os meus amigos perguntam que fim cê levou
               A
Meu pai não desiste

Ainda quer ser vovô
             E 
O tempo não foi tão legal com nós dois
   F#m
Podia ter sido, mas não foi

Refrão:
                D7M
Agora o nosso quadro
              A
Casando na igreja
                  C#m7 
Não vai ser pendurado
                      F#m
Só existe na minha cabeça
                    D7M
Nós dois tocando o gado
             A
A filha boiadeira
               C#m7 
Nossa vida no mato
                     F#m
Só existe na minha cabeça


Vai ser amor mesmo
                    D7M 
Não sendo a vida inteira
A
  Vai ser amor mesmo
                    C#m7  F#m
Não sendo a vida inteira

Final:
D7M  A  C#m7  F#m

E|-9--9----9-12----------9--9----9-12-------|
B|---------------10-12----------------10-12-|
G|------------------------------------------|
D|------------------------------------------|
A|------------------------------------------|
E|------------------------------------------|

E|-9--9----9-12----------9--9---------------|
B|---------------10-12----------------------|
G|------------------------------------------|
D|------------------------------------------|
A|------------------------------------------|
E|------------------------------------------|
  • Enviada por: Sem inscrição
  • Exibições: 3.184
  • Nº de acordes: 6