Ana Castela

Não Vai Ver Nunca (part. Simone Mendes)

Ana Castela

Compartilhar:

Capotraste 4ª casa

Tom: Am
Intro: Am7  G  Dm  E7

[Tab - Solo Intro]

   Am7                    G
E|-----3/5--5-5-5---5-5-5/7--7-7-7-7-7------|
B|------------------------------------------|
G|------------------------------------------|
D|------------------------------------------|
A|------------------------------------------|
E|------------------------------------------|

   Dm                           E7
E|------------------------------------------|
B|----8-8-8\6--6-6\5--5-5-6-3-3/5-----------|
G|------------------------------------------|
D|--------------------------------2h3p2p0h2-|
A|------------------------------------------|
E|------------------------------------------|

[Verso 1]

[Tab - Verso 1]

   Am9        G         Dm         E7
E|-------0----------3---------1----0--------|
B|-----0----------3---------3------0--------|
G|---2----------0---------2--------1--------|
D|----------------------0----------0--------|
A|-0-------------------------------2--------|
E|------------3--------------------0--------|

Verso 1:
      Am9
Você tá estranhando
     G
O silêncio durando
       Dm
Não bati na sua porta
         E7
E o seu telefone não toca

Pré-Refrão:
 F                             G
Ninguém te fala que me viu chorando
                    Em7
Nem remoendo pelos cantos
                        F
'Cê começou a se preocupar
                     G
Cadê a maluca perturbando?
                  Em7
A grudenta incomodando
                       F
Te esqueceu sem te avisar

Refrão:
    Am
Um monte de mensagem
 A7           Dm
Minha na sua tela
    G
Eu louca gritando seu nome
            C  E7
No meio da ru__a
     Am
Ver você com outra
      A7                  Dm
Implorar pra você largar dela
     E7                          Am
São coisas que você não vai ver nunca

Um monte de mensagem
 A7       Dm
Minha na sua tela
    G
Eu louca gritando seu nome
            C  E7
No meio da ru__a
     Am
Ver você com outra
      A7                  Dm
Implorar pra você largar dela
     E7
São coisas que você
     Am           A7
Não vai ver nunca

Solo: 
Dm  G  C  E7
Am  A7  Dm  E7

Pré-Refrão:
 F                             G
Ninguém te fala que me viu chorando
                    Em7
Nem remoendo pelos cantos
                        F
'Cê começou a se preocupar
                     G
Cadê a maluca perturbando?
                  Em7
A grudenta incomodando
                       F
Te esqueceu sem te avisar

Refrão:
    Am
Um monte de mensagem
 A7           Dm
Minha na sua tela
    G
Eu louca gritando seu nome
            C  E7
No meio da ru__a
     Am
Ver você com outra
      A7                  Dm
Implorar pra você largar dela
     E7                          Am
São coisas que você não vai ver nunca


Um monte de mensagem
 A7       Dm
Minha na sua tela
    G
Eu louca gritando seu nome
            C  E7
No meio da ru__a
     Am
Ver você com outra
      A7              Dm
Implorar pra você largar dela
     E7
São coisas que você
             Am   A7
Não vai ver nunca

(Dm  G  C  E7)
(Am  A7  Dm)

     E7
São coisas que você
             Am9  Am
Não vai ver nunca
  • Enviada por: Sem inscrição
  • Exibições: 106
  • Nº de acordes: 10