Usher

You Remind Me

Usher

Compartilhar:

D#m7
|----6---6--x--9--9--9---6-----6---6-------------------------|
|----7---7--x--7--7--7---7-----9---7-------------------------|
|----6---6--x--6--6--6---6-----6---6-------------------------|
|----8---8--x--8--8--8---8-----8---8-------------------------|
|----6---6--x--6--6--6---6-----6---6-------------------------|
|----6---6--x--6--6--6---6-----6---6-------------------------|


     B          C#             D#m7
|----2--2--x-2---4--4-x--------6---6--x--9--9--9---6-----6---6----|
|----4--4--x-4---6--6-x--------7---7--x--7--7--7---7-----9---7----|
|----4--4--x-4---6--6-x--------6---6--x--6--6--6---6-----6---6----|
|----4--4--x-4---6--6-x--------8---8--x--8--8--8---8-----8---8----|
|----2--2--x-2---4--4-x--------6---6--x--6--6--6---6-----6---6----|
|----2--2--x-2---4--4-x--------6---6--x--6--6--6---6-----6---6----|
  • Enviada por: Sem inscrição
  • Exibições: 571
  • Nº de acordes: 3