Sem imagem

House Of Jealous Lovers

The Rapture

Compartilhar:

Intro: 
e|------------------------------------------------------|
A|------------------------------------------------------|
D|8----6----11--8----6----11--8----6----11--8----6----11|
G|------------------------------------------------------|
B|8----6----11--8----6----11--8----6----11--8----6----11|
E|------------------------------------------------------|

Verse:
e|----------------------------------------------|
B|----------------------------------------------|
G|--10--8--------------------10--8--------------|
D|----------------------------------------------|
A|---------------8--6---------------------8--6--|
E|----------------------------------------------|

Main melody:
e|----------------------------------------|
B|----------------------------------------|
G|----------8------------------8----------|
D|-------6------------------6-------------|
A|--6/8----------6--9--6/8----------6--9--|
E|----------------------------------------|
  • Enviada por: Sem inscrição
  • Exibições: 103
  • Nº de acordes: 0