Sem imagem

Devil Intro

The Rapture

Compartilhar:

|--------3------------------------3---------------------|
|--------3------------------------3---------------------|
|-------------------------------------------------------|
|-------------------------------------------------------|x4
|-------------------------------------------------------|
|---3---------------------------------------------------|

|----6-6-6-6---3-3--------------------------------------|
|----------------------6-6-6-6---3-3--------------------|
|-------------------------------------------------------|
|-------------------------------------------------------|
|-------------------------------------------------------|
|-------------------------------------------------------|

|----6-6-6-6---3-3--------------------------------------|
|----------------------6-6-6-6---3-3--------------------|
|-------------------------------------------------------|
|-------------------------------------------------------|
|-------------------------------------------------------|
|-------------------------------------------------------|

|----6-6-6-6---3-3----------6-6-6-6---3-3---------------|
|-------------------------------------------------------|
|-------------------------------------------------------|
|-------------------------------------------------------|
|-------------------------------------------------------|
|-------------------------------------------------------|

|----6-6-6-6---3-3----------6-6-6-6---3-3---------------|
|-------------------------------------------------------|
|-------------------------------------------------------|
|-------------------------------------------------------|
|-------------------------------------------------------|
|-------------------------------------------------------|

|-x----x-----3-------x-----x-------3------|
|-x----x-----3-------x-----x-------3------|
|-x----x-------------x-----x--------------|
|-x----x-------------x-----x--------------|
|-x----x-------------x-----x--------------|
|-x----x-------------x-----x--------------|

|-x----x-----3-------x-----x-------3------|
|-x----x-----3-------x-----x-------3------|
|-x----x-------------x-----x--------------|
|-x----x-------------x-----x--------------|
|-x----x-------------x-----x--------------|
|-x----x-------------x-----x--------------|
  • Enviada por: Sem inscrição
  • Exibições: 71
  • Nº de acordes: 0