Sem imagem

Don't Push Love Away

The Juliana Theory

117 exibições
Verse
e|----2----5----0----
B|----3----7----2----
G|----4----7----2----
D|----4----7----2----
A|----2----5----0----
E|----2----x----x----

Chorus                         I sometimes sub in this G
e|----3----2----0----                       --3--
B|----3----3----2----                       --0--
G|----0----4----2----                       --0--
D|----0----4----2----                       --0--
A|----2----2----0----                       --x--
E|----3----2----x----                       --3--

for the bridge ("She's crying..."), it's an alternating D
this sounds best when you're playing it by yourself

e|----2----5----
B|----3----3----
G|----2----2----
D|----0----0----
A|----x----x----
E|----x----x----


Enviada por Sem inscrição
Nº de acordes: 0