Sem imagem

Familia Addams

Temas de Filmes

Compartilhar:

                        snap snap              snap snap
------------------------------------------------------------
---------------2--3----------------------4--5---------------
---------3--5----------------------5--7---------------------
------------------------------------------------------------
------------------------------------------------------------
------------------------------------------------------------
                                                snap snap
------------------------------------------------------------
---------------4--5----------4--5--------2--3---------------
---------5--7----------5--7--------3--5---------------------
------------------------------------------------------------
------------------------------------------------------------
------------------------------------------------------------
  • Enviada por: Sem inscrição
  • Exibições: 5.711
  • Nº de acordes: 0