Skank

Tanto (I Want You)

Skank

3.510 exibições
Tom: G
Intro: G  Bm  Em  D

    6X     3X     2X      
E|---7----|---7---|---5---|-------3-----3---------0-----0-----------7----7-------|
B|-----10-|-----8-|-----8-|---------5-----5---5-----3-----3---3-------8----8---8-|
G|-7------|-7-----|-7-----|-7-6-5-----5-----5---2-----2-----2-----7-----7----7---|
D|--------|-------|-------|------------------------------------------------------|
A|--------|-------|-------|------------------------------------------------------|
E|--------|-------|-------|------------------------------------------------------|

   4X

e|-2-----------------2-----|
B|-3-------------------3---|
G|-2-0---------------------|
D|-----4--2--0-----0-------|  
A|-------------------------|
E|-------------------------|



  G
Coveiros gemem tristes ais
  Bm                  Em
E realejos ancestrais juram que
                      D
Eu não devia mais querer você
   C
Os sinos e os clarins rachados
D
Zombando tão desafinados
Em
Querem, eu sei, mas é pecado
   D
Eu te perder

   G       Bm
É tanto, é tanto
      Em            D
Se ao menos você soubesse
          G
Te quero tanto

   G
Políticos embriagados
   Bm
Dançando em guetos arruinados
Em
 E os profetas desacordados
  D
A te ouvir
   C                       
Eu sei que eles vêm tomar
D
Meu drinque em meu corpo trincar
  Em                        D
E me pedir pra te deixar partir

   G        Bm
É tanto, é tanto
       Em           D
Se ao menos você soubesse
          G      Intr. (riff 1)
Te quero tanto

Bm
Todos meus pais querem me dar 
 Em
Amor que há tempos não está lá
   D
E suas filhas vão me deixar
     C           D
Por isso não me preocupar

G
Eu voltei pra minha sina
Bm
Contei pra uma menina
    Em                       D
Meu medo só termina estando ali
    C
Ela é suave assim
D
E sabe quase tudo de mim
    Em
Ela sabe onde eu
               D
Queria estar enfim

   G        Bm
É tanto, é tanto
       Em           D
Se ao menos você soubesse
         G
Te quero tanto

         G
Mas seu dândi vai e paletó chinês
Bm
Falou comigo mais de uma vez
Em
Não, eu sei, não fui muito cortês
    D
Com ele, não
C
Isso, porque ele mentiu,
D
Porque te ganhou e partiu
Em
Por que o tempo consentiu
     D
Ou senão porque

   G        Bm
É tanto, é tanto
      Em            D   
Se ao menos você soubesse
         G
Te quero tanto
  Bm
É tanto

      Em            D
Se ao menos você soubesse
          G     Intr. (riff 1)
Te quero tanto
   G       Bm
É tanto, é tanto
      Em            D
Se ao menos você soubesse
         G
Te quero tanto
  Bm
É tanto
      Em            D
Se ao menos você soubesse
         G
Te quero tanto...


Enviada por Sem inscrição
Nº de acordes: 5