Skank

Mil Acasos

Skank

1.426 exibições
Intro: D Bm

  e-----------2-----2-2-------------2-----2-2-----------------------
  B|----------3-----3-3-------------3-----3-3-----------------------
  G|--2--4-4------4---------2--4-4------4--------2--4-4----2--4-4--- 2x 
  D|----------------------------------------------------------------
  A|----------------------------------------------------------------
  E|----------------------------------------------------------------

D			   Bm	
Mil acasos me levam a você
D			     Bm
O sábado, o signo, o carnaval
G			      A
Mil acasos me tomam pela mão
A feira, o feriado nacional
D			Bm
Mil acasos me levam a perder
D		           Bm
O senso, o ritmo habitual

Bm D/F# G (uma batida para cada acorde)

G			A
Mil acasos me levam a você
                                 G
No início, no meio ou no final
               A	
Me levam a você
De um jeito desigual

D			    Bm
Mil acasos apontam a direção
D			  Bm
Desvio de rota é tão normal

Bm D/F# G (uma batida para cada acorde)

G			     A
Mil acasos me levam a você
                               G
No mundo concreto ou virtual
           A
Me levam a você
De um jeito desigual

Em
Quem sabe, então, por um acaso
Bm
Perdido no tempo ou no espaço
Bb					A
Seus passos queiram se juntar aos meus
Bb					A
Seus braços queiram se juntar aos meus

(SOLO)

  e|----------------------------------------------------------------
  B|----------------------------------------------------------------
  G|--9b10-9---7~----9b10--9b10---7~~~~------------6--7--6----------
  D|-------------9------------------------9~~~~--9----------9---7~--
  A|----------------------------------------------------------------
  E|----------------------------------------------------------------

  e|----------------------------------------------------------------
  B|-----------------------------------------10---------------------
  G|--9b10-9---7~----9b10--9b10---7~------7---------6--7--6---------
  D|-------------9---------------------9---------9----------9---5~--
  A|----------------------------------------------------------------
  E|----------------------------------------------------------------

Intro: D Bm (2x)

G			A
Mil acasos me levam a você                              
No início, no meio ou no final
D			   Bm
Mil acasos me levam por aí
D				 Bm
Na espuma do tempo, no temporal

Bm D/F# G (uma batida para cada acorde)

G			       A
Mil acasos me dizem o que sou
                             G
Ateu praticante, ocidental
           A
Me levam a você
De um jeito desigual

Em
Quem sabe, então, por um acaso
Bm
Perdido no tempo ou no espaço
Bb					A
Seus passos queiram se juntar aos meus
Bb					A
Seus braços queiram se juntar aos meus

(termina em D)


Enviada por by_bruno
Nº de acordes: 13