Simple Plan

My Alien

Simple Plan

195 exibições
------------------------------------------------------------------------------
------------------------------------------------------------------------------
------------------------------------------------------------------------------
-----7---6---7-------7---6---7------6-7---6---7------6-7---6---6h7------------
---7---7---7---7---7---7---7---7--5-----5---5---5--7-----7---7----------------
-5---------------5------------------------------------------------------------
That's the intro , take note of this because you’ll be playing this more than
once during the song 

------------------------------------------------------------------------------
------------------------------------------------------------------------------
-18--19--21--14-/-18-\-16-/-18-\-16-------------------------------------------
------------------------------------------------------------------------------
-16--17--19--12-/-16-\-14-/-16-\-14-------------------------------------------
------------------------------------------------------------------------------
here's the lead riff 

------------------------------------------------------------------------------
------------------------------------------------------------------------------
--------------------------9-9-9-9---------------------------------------------
--2-2-2-2-6-6-6-6-7-7-7-7-9-9-9-9---------------------------------------------
--2-2-2-2-6-6-6-6-7-7-7-7-7-7-7-7---------------------------------------------
--0-0-0-0-4-4-4-4-5-5-5-5-0-0-0-0---------------------------------------------
Here's the rythm during the lead riff 

------------|---------|-------------------------------------------------------
------------|---------|-------------------------------------------------------
------------|-9-9-9-9-|-18---16--18---16--------------------------------------
-11-11-11-11|-9-9-9-9-|-------------------------------------------------------
-11-11-11-11|-7-7-7-7-|-16---14--16---14--------------------------------------
-9--9--9--9-|-0-0-0-0-|-------------------------------------------------------
« Somewhere where no body will know our faces » NOTE : the part in between the
lines is played by Seb while Jeff plays the part after the lines. Get it? Good. 

------------------------------------------------------------------------------
------------------------------------------------------------------------------
-2-2-2-2-----------------7-7-7-7-2-2-2-2---------2-2-2-2-7--------------------
-2-2-2-2-2-2-2-2-4-4-4-4-7-7-7-7-2-2-2-2-4-4-4-4-2-2-2-2-7--------------------
-0-0-0-0-2-2-2-2-4-4-4-4-5-5-5-5-0-0-0-0-4-4-4-4-0-0-0-0-5--------------------
---------0-0-0-0-2-2-2-2-----------------2-2-2-2------------------------------
Here’s some part, I forget where it is but it’s there. 

------------------------------------------------------------------------------
------------------------------------------------------------------------------
---------------------------------------------7-7-7-9-9-9---------------7-7-7--
-----6---7-------7-----6-7-6---6-7---6---7---7-7-7-9-9-9---6-7---6---7-7-7-7--
---7---7---7---7---7-7-------5-----5---5---5-5-5-5-7-7-7-9-----9---9---5-5-5--
-5-----------5----------------------------------------------------------------
this is probably the hardest part in the song... it’s the « She can take me to
the place that she calls home » part. 

------------------------------------------------------------------------------
------------------------------------------------------------------------------
-9-9-9---------------7-7--9-9-------------------------------------------------
-9-9-9---6-7---6---7-7-7--9-9-------------------------------------------------
-7-7-7-9-----9---9---5-5--7-7-------------------------------------------------
------------------------------------------------------------------------------

 

------------------------------------------------------------------------------
------------------------------------------------------------------------------
-2-2-2-2-----------------7-7-7-7----------------------------------------------
-2-2-2-2-2-2-2-2-4-4-4-4-7-7-7-7----------------------------------------------
-0-0-0-0-2-2-2-2-4-4-4-4-5-5-5-5----------------------------------------------
---------0-0-0-0-2-2-2-2------------------------------------------------------
 

------------------------------------------------------------------------------
------------------------------------------------------------------------------
-------------9-9---------------------9-9---------------------9-9--------------
-----7-9-9-7-----7-9-9-7-----7-9-9-7-----7-9-9-7-----7-9-9-7-----7-9-9-7------
-0-0---------------------5-5---------------------9-9---------------------5-5--
------------------------------------------------------------------------------
Here’s the bridge part where there’s no singing 

-----------------------------|------------------------------------------------
-----------------------------|------------------------------------------------
---------9-9-----------------|--7-7-7-7---------------------------------------
-7-9-9-7-----7-9-9-7---------|--7-7-7-7---------------------------------------
-----------------------------|--5-5-5-5---------------------------------------
-----------------------------|------------------------------------------------

 

-----9-10----9-9-------9-10-12----12----12----12-12b-|--12--------------------
--10------10-----12-10---------10----10----10--------|--10--------------------
-----------------------------------------------------|--9---------------------
-----------------------------------------------------|------------------------
-----------------------------------------------------|------------------------
-----------------------------------------------------|------------------------


Enviada por Sem inscrição
Nº de acordes: 0