Seether

The Gift

Seether

134 exibições
Intro: 

       Am          G           F 
Eb| -------------------------------------------------- 
Bb| -------------------------------------------------- 
Gb| -------5------------4-------------2-2-0----0------ 
Db| ---7-----7------5-----5------3---------3-----3---- 
Ab| -7---7-----7--5---5-----5--3---3---------3-------- 
Eb| -------------------------------------------------- 

       Am          G           F 
Eb| ------------------------------------------0------ 
Bb| ------------------------------------------0------ 
Gb| -------5------------4------------2-2-0----2------- 
Db| ---7-----7------5-----5-----3---------3---3------- 
Ab| -7---7-----7--5---5----5--3---3-----------3------- 
Eb| -------------------------------------------------- 

Solo: 

Eb| -7----5------------------------------------------- 
Bb| ---8~---5~-5/8-8h10-8-10-8-6-5-6/8---------------- 
Gb| -------------------------------------------------- 
Db| -------------------------------------------------- 
Ab| -------------------------------------------------- 
Eb| --------------------------------------------------

(Am G F) 
Hold me now I need to feel relief 
Like I never wanted anything 
I suppose I'll let this go and find a reason I'll hold on to 
I'm so ashamed of defeat 
And I'm out of reason to believe in me 
I'm out of trying to get by 

(C5 G5 F5 Am5 G5 F5) 
I'm so afraid of the gift you give me 
I don't belong here and I'm not well 
I'm so ashamed of the lie I'm living 
Right on the wrong side of it all 

(Am G F) 
I can't face myself when I wake up 
And look inside a mirror 
I'm so ashamed of that thing 
I suppose I'll let it go 
Untill I have something more to say for me 
I'm so afraid of defeat 
And I'm out of reason to believe in me 
I'm out of trying to defy 

(C5 G5 F5 Am5 G5 F5) 
I'm so afraid of the gift you give me 
I don't belong here and I'm not well 
I'm so ashamed of the lie I'm living 
Right on the wrong side of it all 

(Apenas o solo da Intro) 
Hold me now I need to feel complete 
Like I matter to the one I need 

(C G F) 
I'm so afraid of the gift you give me 
I don't belong here and I'm not well 
I'm so ashamed of the lie I'm living 
Right on the wrong side of it all 

(Am G F) 
Now I'm ashamed of this 
I am so ashamed of this 
Now I'm so ashamed of this 
I am so ashamed of me...


Enviada por Sem inscrição
Nº de acordes: 8