Seether

Rise Above This

Seether

94 exibições
Standard halftone lowered (Esta música é tocada meio tom abaixo) 

Eb|-2-2-2-2-2-2-2-2-------------5-5-2-2-2-2-2-2-2-2-------------5-5----|  
Bb|-----------------5-5-5-3-3-3---------------------5-5-5-3-3-3--------| 
Gb|--------------------------------------------------------------------| 
Db|--------------------------------------------------------------------| 

Eb|-3-3-3-3-3-3-3-3-------------5-5-3-3-3-3-3-3-3-3-------------5-5-2--|  
Bb|-----------------7-7-7-5-5-5---------------------7-7-7-5-5-5-----3--| 
Gb|-----------------------------------------------------------------2--| 
Db|--------------------------------------------------------------------|

D 
Take the night and darken everything around me, 
G 
Call the clouds, and listen closely, I'm lost without you 

D 
Call your name everyday, when I feel so helpless 
G 
I'm fallen down, but I'll rise above this, rise above this 

D 
Hate your mind, regrets are better left unspoken 
G 
For all we know this void will grow, and  
        D   
everything's in vain, distressing you don't leave me open, 
G 
Feels so right that I'll end this all before it gets me 

D 
Call your name everyday, when I feel so helpless 
G 
I'm fallen down (fallen down) but I'll rise above this, rise above this 
D 
Call your name everyday when I seem so helpless 
G 
I'm fallen down (fallen down) but I'll rise above this, rise above this now 

Eb|-5-5-5--------------5-5-5-7-------------------------|  
Bb|-------5-7-7-7-5-3----------5/7-7-7-5-3-------------| 
Gb|----------------------------------------------------| 
Db|----------------------------------------------------| 

Eb|-5/7-5--------------5/7-5---------------------------| 
Bb|-------7/8-7-7-5-3---------7/8-7-7-7-5-3-3/5--3-----| 
Gb|----------------------------------------------2-----| 
Db|----------------------------------------------0-----|

D  
I'll mend myself before it gets me... 
I'll mend myself before it gets me... 
I'll mend myself before it gets me... 
I'll mend myself before it gets me... 

D 
Call your name everyday, when I feel so helpless 
G 
I'm fallen down (fallen down) but I'll rise above this, rise above this 
D 
Forty eight ways to say that I'm feeling helpless 
G 
Fallen down, and I'll 
G 
Rise above this, rise above this,  
G 
Rise above this, rise above this now. 

Eb|-2-2-2-2-2-2-2-2-------------5-5--2-2-2-2-2-2-2-2------------5-5-2--|  
Bb|-----------------5-5-5-3-3-3----------------------5-5-5-3-3-3-------| 
Gb|--------------------------------------------------------------------| 
Db|--------------------------------------------------------------------|


Enviada por Sem inscrição
Nº de acordes: 2