Seether

Fine Again

Seether

Compartilhar:

INTRO 
e|--------------------------------|--------------------------------|
B|--------------------------------|-------------------------3---3--|
G|-----------------------1-2---2--|-------------------------2---2--|
D|-----4-6-----7-6-----2---0---0--|-----4-6-----7-6-----2---0---0--|
A|---4-------7-------2------------|---4-------7-------2---2--------|
E|-2-------5-------0--------------|-2-------5-------0--------------|



VERSO
e|--------------------------------|--------------------------------|
B|---------------------------3-3--|---------------------------3-3--|
G|---------------------------2-2--|---------------------------2-2--|
D|-4---4---xx--7-7--2---2----0-0--|-4---4---xx--7-7-2---2-----0-0--| X2
A|-4---4---xx--7-7--2---2----0-0--|-4---2---xx--7-7-2---2-----0-0--|
E|-2---2---xx--5-5--0---0---------|-2---2---xx--5-5-0---0----------|



e|--------------------------------| |--------------------------------|
B|-------------------------3---3--| |-------------------------333-33-|
G|-------------------------2---2--| |-------------------------222-22-|
D|-4-4-4-6-7-7-6-7-2-2-2-4-0---0--| X3 |-4-4-4-6-7-7-6-7-2-2-6-4-000-00-|
A|-4-4-----7-7-----2-2-----0---0--| |-4-4-----7-7-----2-2-----000-00-|
E|-2-2-----5-5-----0-0------------| |-2-2-----5-5-----0-0------------|




Refrão
e|--------------------------------|
B|--------------------------------|
G|-------------7-7-4---4---9-9----|
D|-4---4-------7-7-4---4---9-9----| X4
A|-4---4-------5-5-2---2---7-7----|
E|-2---2-------5-5-2---2---7-7----|

verso 2
e|--------------------------------| |--------------------------------|
B|--------------------------------| |---------------------------3-3--|
G|-----------------------------2--| |---------------------------2-2--|
D|-----4-------7-------2-----0----| |-4---4---xx--7-7-2---2-----0-0--| X3
A|---4---4---7---7---2---2-0------| |-4---4---xx--7-7-2---2-----0-0--|
E|-2-------5-------0--------------| |-2---2---xx--5-5-0---0----------| 


e|--------------------------------| |--------------------------------|
B|-------------------------3---3--| |-------------------------333-33-|
G|-------------------------2---2--| |-------------------------222-22-|
D|-4-4-4-6-7-7-6-7-2-2-2-4-0---0--| X3 |-4-4-4-6-7-7-6-7-2-2-6-4-000-00-|
A|-4-4-----7-7-----2-2-----0---0--| |-4-4-----7-7-----2-2-----000-00-|
E|-2-2-----5-5-----0-0------------| |-2-2-----5-5-----0-0------------|



refrão
e|--------------------------------|
B|--------------------------------|
G|-------------7-7-4---4---9-9----|
D|-4---4-------7-7-4---4---9-9----| X4
A|-4---4-------5-5-2---2---7-7----|
E|-2---2-------5-5-2---2---7-7----|

bridge
e|--------------------------------|
B|--------------------------------|
G|-----7----7--------4----4-------|
D|---7-------------4--------------|
A|-5---------52-2---------2/5----|
E|--------------------------------|



A)
e|-9---10--9---10--9---10--9---10-|-9---10--9---10--9---10--12--12-|
B|---7---7---7---7---7---7---7---7|---7---7---7---7---7---7---8---8|
G|--------------------------------|--------------------------------|
D|--------------------------------|--------------------------------|
A|--------------------------------|--------------------------------|
E|--------------------------------|--------------------------------|

B)
e|--------------------------------|
B|--------------------------------|
G|-------------7-7-4---4---9-9----|
D|-4---4-------7-7-4---4---9-9----| X2 (depois do refrão começar)
A|-4---4-------5-5-2---2---7-7----|
E|-2---2-------5-5-2---2---7-7----|


refrão
e|--------------------------------|
B|--------------------------------|
G|-------------7-7-4---4---9-9----|
D|-4---4-------7-7-4---4---9-9----| X10
A|-4---4-------5-5-2---2---7-7----|
E|-2---2-------5-5-2---2---7-7----|


)
e|--------------------------------|
B|--------------------------------|
G|--------------------------------|
D|-4------------------------------|
A|-4------------------------------|
E|-2------------------------------|
  • Enviada por: Sem inscrição
  • Exibições: 612
  • Nº de acordes: 2