Tom: D
Intro: (D9 Dm/F G/B F G) 2x   

Riff Intro:

    D9         Dm/F      G/B            C9        G 
e|-----0---|-------0---|-------------|--------------------- 
B|-----3---|-------3---|-------3-----|---------------------
G|---2-2---|---0p2---2-|-------0-----|---------0h2p0-------
D|-0---0-0-|-3-3-3-----|-----0-------|-----2h3-------0h2p0-
A|---------|-----------|-0p2-------2-|-2h3----------------- 
E|---------|-----------|-------------|--------------------- 

    D9         Dm/F     G/B        F   G 
e-----0---|-------0---|-------------|-x-x-x---| 
B-----3---|-------3---|-------3-----|-1-x-3---| 
G---2-2---|---0p2---2-|-------0-----|-2-x-4---| 
D-0---0-0-|-3-3-3-----|-----0-------|-3-x-5---| 
A---------|-----------|-0p2-------2-|---------| 
E---------|-----------|-------------|---------| 

    D9                 Dm/F      G/B
    My friends are so depressed,
        C9      D9              Dm/F      G/B   C9 G
    I feel the question of your loneliness.
             D9                    Dm/F   
    Confide, cause I\\\'ll be on your side,
    G/B   F    G       D9       Dm/F    G/B  C9 G 
    you know I will,       you know I will.
 
    D9               F           G
      A girlfriend called me up,
      C         D9                  F         G
    alone and desperate, on the prison phone.
          C       D9          F     G        C
    They want to give her 7 years       for being sad.
    
Refrão:    

    C      Am          C        D      A9
    I love all of you,    hurt by the cold.
    C           Am          C        D          A9
    So hard and lonely too,    when you don\\\'t know yourself.
   
    D9                     Dm/F    G/B
      My friends are so distressed,
          C9      D9               Dm/F    G
    and standing on the brink of emptiness.
        C9       D9          Dm/F  G/B           C9
    No words I know of to express        this emptiness. 

(Refrão)

Base Solo: (D F G C) 4x

E      G    A         F          C        B7     F F
Imagine me taught by tragedy,  release is peace.

D9             Dm/F      G/B
    I heard a little girl,
         C9       D9                  Dm/F     G/B  
    and what she said  was something beautiful,
        C9        D9              Dm/F  G/B          F
    to give your love, no matter what.        Hear what she said.

(Refrão)

(D F G C) 4x


Enviada por Sem inscrição
Nº de acordes: 13